Oops, an error
Loading. Please wait.

Exist Tab

version 1
version 1

Intro

Interactive

445 views 354 this week
no commentswrite comment
1 2 3 4 5
3 more votes to show rating
add to favorites
launch autoscroll
font size
0
reset
how to read this tab
guitar tuner
Autoscroll
slow
fast
+/-
esc
set tempo
stop
Help us to improve Ultimate-Guitar.com Take our survey!
×
Author
Difficulty
Tuning
advanced
D A D G B E
Gtr I (E A D G B E) - 'Untitled'
Gtr II (E A D G B E) - 'Untitled'

  Q=190
  Gtr I
   |--3--|  |--3--|  |--3--|  |--3--|    |--3--|  |--3--|  |--3--|  |--3--|
   E  E  E  E  E  E  E  E  E  E  E  E    E  E  E  E  E  E  E  E  E  E  E  E
|-10--6-----------------------------6-|-10--6-----------------------------6-|
|-------10--8-----------------8-10----|-------10--8-----------------8-10----|
|--------------7-----------7----------|--------------7-----------7----------|
|-----------------8-----8-------------|-----------------8-----8-------------|
|-------------------10----------------|-------------------10----------------|
|-------------------------------------|-------------------------------------|
|
| Gtr II
|  |--3--|  |--3--|  |--3--|  |--3--|    |--3--|  |--3--|  |--3--|  |--3--|
|  E  E  E  E  E  E  E  E  E  E  E  E    E  E  E  E  E  E  E  E  E  E  E  E
|-15-10----------------------------10-|-15-10----------------------------10-|
|-------11-10----------------10-11----|-------11-10----------------10-11----|
|-------------12----------12----------|-------------12----------12----------|
|----------------12----12-------------|----------------12----12-------------|
|-------------------13----------------|-------------------13----------------|
|-------------------------------------|-------------------------------------|


   |-3--|  |-3--|  |-3--|  |-3--|    |-3--|  |-3--|  |-3--|  |-3--|
   E E  E  E E  E  E  E E  E  E E    E E  E  E E  E  E  E E  E  E E
|--8-5--------------------------5-|--8-5--------------------------5-|
|-------7---------------------7---|-------7---------------------7---|
|----------8-5----------5--8------|----------8-5----------5--8------|
|---------------7-----7-----------|---------------7-----7-----------|
|------------------9--------------|------------------9--------------|
|---------------------------------|---------------------------------|
|
|  |-3--|  |-3--|  |-3--|  |-3--|    |-3--|  |-3--|  |-3--|  |-3--|
|  E E  E  E E  E  E  E E  E  E E    E E  E  E E  E  E  E E  E  E E
|-11-8--------------------------8-|-11-8--------------------------8-|
|------10--------------------10---|------10--------------------10---|
|---------11-8----------8-11------|---------11-8----------8-11------|
|--------------10----10-----------|--------------10----10-----------|
|-----------------12--------------|-----------------12--------------|
|---------------------------------|---------------------------------|


   |--3--|  |--3--|  |--3--|  |--3--|    |--3--|  |--3--|  |--3--|  |--3--|
   E  E  E  E  E  E  E  E  E  E  E  E    E  E  E  E  E  E  E  E  E  E  E  E
|-10--6-----------------------------6-|-10--6-----------------------------6-|
|-------10--8-----------------8-10----|-------10--8-----------------8-10----|
|--------------7-----------7----------|--------------7-----------7----------|
|-----------------8-----8-------------|-----------------8-----8-------------|
|-------------------10----------------|-------------------10----------------|
|-------------------------------------|-------------------------------------|
|
|  |--3--|  |--3--|  |--3--|  |--3--|    |--3--|  |--3--|  |--3--|  |--3--|
|  E  E  E  E  E  E  E  E  E  E  E  E    E  E  E  E  E  E  E  E  E  E  E  E
|-15-10----------------------------10-|-15-10----------------------------10-|
|-------11-10----------------10-11----|-------11-10----------------10-11----|
|-------------12----------12----------|-------------12----------12----------|
|----------------12----12-------------|----------------12----12-------------|
|-------------------13----------------|-------------------13----------------|
|-------------------------------------|-------------------------------------|


   |--3--|  |--3--| |-3-| |-3-|   |--3--|  |--3--|  |--3--|  |--3--|
   E  E  E  E  E  E E E E E E E   E  E  E  E  E  E  E  E  E  E  E  E
|-11--6-------------------------|---------11-13-14-14-13----18-14----|
|--------7--6-------------------|------------------------16-------16-|
|--------------8----------------|-8-10-11----------------------------|
|-----------------8-----------8-|------------------------------------|
|-------------------9-8-6-8-9---|------------------------------------|
|-------------------------------|------------------------------------|
|
|  |--3--|  |--3--| |-3-| |-3-|   |--3--|  |--3--|  |--3--|  |--3--|
|  E  E  E  E  E  E E E E E E E   E  E  E  E  E  E  E  E  E  E  E  E
|-14-11-------------------------|---------11-13-14-14-13----23-18----|
|-------11----------------------|------------------------16-------19-|
|----------11-10----------------|-8-10-11----------------------------|
|----------------13-----------8-|------------------------------------|
|-------------------9-8-6-8-9---|------------------------------------|
|-------------------------------|------------------------------------|


   |-3--|  |--3--|  |--3--|  |-3--|    |-3--|  |--3--|  |--3--|  |-3--|
   E E  E  E  E  E  E  E  E  E  E E    E E  E  E  E  E  E  E  E  E  E E
|-13-9----------------------------9-|-13-9----------------------------9-|
|------13-11----------------11-13---|------13-11----------------11-13---|
|------------10----------10---------|------------10----------10---------|
|---------------11----11------------|---------------11----11------------|
|------------------13---------------|------------------13---------------|
|-----------------------------------|-----------------------------------|
|
|  |-3--|  |--3--|  |--3--|  |-3--|    |-3--|  |--3--|  |--3--|  |-3--|
|  E E  E  E  E  E  E  E  E  E  E E    E E  E  E  E  E  E  E  E  E  E E
|--9-6----------------------------6-|--9-6----------------------------6-|
|-------9--6-----------------6--9---|-------9--6-----------------6--9---|
|-------------6-----------6---------|-------------6-----------6---------|
|----------------8-----8------------|----------------8-----8------------|
|-------------------8---------------|-------------------8---------------|
|-----------------------------------|-----------------------------------|


   |--3--|  |--3--|  |--3--|  |--3--|    |--3--|  |--3--|  |--3--|  |--3--|
   E  E  E  E  E  E  E  E  E  E  E  E    E  E  E  E  E  E  E  E  E  E  E  E
|-11--8-----------------------------8-|-11--8-----------------------------8-|
|-------10----------------------10----|-------10----------------------10----|
|----------11--8-----------8-11-------|----------11--8-----------8-11-------|
|----------------10----10-------------|----------------10----10-------------|
|-------------------12----------------|-------------------12----------------|
|-------------------------------------|-------------------------------------|
|
|  |--3--|  |--3--|  |--3--|  |--3--|    |--3--|  |--3--|  |--3--|  |--3--|
|  E  E  E  E  E  E  E  E  E  E  E  E    E  E  E  E  E  E  E  E  E  E  E  E
|-14-11----------------------------11-|-14-11----------------------------11-|
|-------13----------------------13----|-------13----------------------13----|
|----------14-11----------11-14-------|----------14-11----------11-14-------|
|----------------13----13-------------|----------------13----13-------------|
|-------------------15----------------|-------------------15----------------|
|-------------------------------------|-------------------------------------|


   |-3--|  |--3--|  |--3--|  |-3--|    |-3--|  |--3--|  |--3--|  |-3--|
   E E  E  E  E  E  E  E  E  E  E E    E E  E  E  E  E  E  E  E  E  E E
|-13-9----------------------------9-|-13-9----------------------------9-|
|------13-11----------------11-13---|------13-11----------------11-13---|
|------------10----------10---------|------------10----------10---------|
|---------------11----11------------|---------------11----11------------|
|------------------13---------------|------------------13---------------|
|-----------------------------------|-----------------------------------|
|
|  |-3--|  |--3--|  |--3--|  |-3--|    |-3--|  |--3--|  |--3--|  |-3--|
|  E E  E  E  E  E  E  E  E  E  E E    E E  E  E  E  E  E  E  E  E  E E
|--9-6----------------------------6-|--9-6----------------------------6-|
|-------9--6-----------------6--9---|-------9--6-----------------6--9---|
|-------------6-----------6---------|-------------6-----------6---------|
|----------------8-----8------------|----------------8-----8------------|
|-------------------8---------------|-------------------8---------------|
|-----------------------------------|-----------------------------------|


   |-3--| |--3--|  |-3--|  |--3--|    |--3--|  |--3--|  |--3--|  |--3--|
   E E  E E  E  E  E  E E  E  E  E    E  E  E  E  E  E  E  E  E  E  E  E
|-14-9-----------------------------|----------14-16-17-17-16----20-17----|
|------10-9------------------------|-------------------------19-------19-|
|-----------11---------------------|-11-13-14----------------------------|
|--------------11---------------10-|-------------------------------------|
|-----------------12-11-9-11-12----|-------------------------------------|
|----------------------------------|-------------------------------------|


   |--3--|  |--3--|  |--3--|  |--3--|    |--3--|  |--3--|  |--3--|  |--3--|
   E  E  E  E  E  E  E  E  E  E  E  E    E  E  E  E  E  E  E  E  E  E  E  E
|-12--9-----------9-12--9-----------9-|-11--8-----------8-11--8-----------8-|
|--------9-----9-----------9-----9----|--------9-----9-----------9-----9----|
|-----------9-----------------9-------|-----------8-----------------8-------|
|-------------------------------------|-------------------------------------|
|-------------------------------------|-------------------------------------|
|-------------------------------------|-------------------------------------|
|
|  |--3--|  |--3--|  |--3--|  |--3--|    |--3--|  |--3--|  |--3--|  |--3--|
|  E  E  E  E  E  E  E  E  E  E  E  E    E  E  E  E  E  E  E  E  E  E  E  E
|-16-12----------12-16-12----------12-|-14-11----------11-14-11----------11-|
|-------14----14----------14----14----|-------13----13----------13----13----|
|----------13----------------13-------|----------11----------------11-------|
|-------------------------------------|-------------------------------------|
|-------------------------------------|-------------------------------------|
|-------------------------------------|-------------------------------------|


   |--3--|  |--3--|  |--3--|  |--3--|    |--3--|  |--3--|  |--3--|  |--3--|
   E  E  E  E  E  E  E  E  E  E  E  E    E  E  E  E  E  E  E  E  E  E  E  E
|-12--9-----------9-12--9-----------9-|-14-11----------11-14-11----------11-|
|--------9-----9-----------9-----9----|-------13----13----------13----13----|
|-----------9-----------------9-------|----------11----------------11-------|
|-------------------------------------|-------------------------------------|
|-------------------------------------|-------------------------------------|
|-------------------------------------|-------------------------------------|
|
|  |--3--|  |--3--|  |--3--|  |--3--|    |--3--|  |--3--|  |--3--|  |--3--|
|  E  E  E  E  E  E  E  E  E  E  E  E    E  E  E  E  E  E  E  E  E  E  E  E
|-16-12----------12-16-12----------12-|-17-14----------14-17-14----------14-|
|-------14----14----------14----14----|-------16----16----------16----16----|
|----------13----------------13-------|----------17----------------17-------|
|-------------------------------------|-------------------------------------|
|-------------------------------------|-------------------------------------|
|-------------------------------------|-------------------------------------|


   |--3--|  |--3--|  |--3--|  |--3--|    |--3--|  |--3--|  |--3--|  |--3--|
   E  E  E  E  E  E  E  E  E  E  E  E    E  E  E  E  E  E  E  E  E  E  E  E
|-15-12----------12-15-12----------12-|-14-11----------11-14-11----------11-|
|-------12----12----------12----12----|-------13----13----------13----13----|
|----------12----------------12-------|----------11----------------11-------|
|-------------------------------------|-------------------------------------|
|-------------------------------------|-------------------------------------|
|-------------------------------------|-------------------------------------|
|
|  |--3--|  |--3--|  |--3--|  |--3--|    |--3--|  |--3--|  |--3--|  |--3--|
|  E  E  E  E  E  E  E  E  E  E  E  E    E  E  E  E  E  E  E  E  E  E  E  E
|-19-15----------15-19-15----------15-|-17-14----------14-17-14----------14-|
|-------17----17----------17----17----|-------16----16----------16----16----|
|----------16----------------16-------|----------14----------------14-------|
|-------------------------------------|-------------------------------------|
|-------------------------------------|-------------------------------------|
|-------------------------------------|-------------------------------------|


   |--3--|  |--3--|  |--3--|  |--3--|    |--3--|  |--3--|  |--3--|  |--3--|
   E  E  E  E  E  E  E  E  E  E  E  E    E  E  E  E  E  E  E  E  E  E  E  E
|-15-12----------12-15-12----------12-|-17-14----------14-17-14----------14-|
|-------12----12----------12----12----|-------16----16----------16----16----|
|----------12----------------12-------|----------14----------------14-------|
|-------------------------------------|-------------------------------------|
|-------------------------------------|-------------------------------------|
|-------------------------------------|-------------------------------------|
|
|  |--3--|  |--3--|  |--3--|  |--3--|    |--3--|  |--3--|  |--3--|  |--3--|
|  E  E  E  E  E  E  E  E  E  E  E  E    E  E  E  E  E  E  E  E  E  E  E  E
|-19-15----------15-19-15----------15-|-20-17----------17-20-17----------17-|
|-------17----17----------17----17----|-------19----19----------19----19----|
|----------16----------------16-------|----------20----------------20-------|
|-------------------------------------|-------------------------------------|
|-------------------------------------|-------------------------------------|
|-------------------------------------|-------------------------------------|


   |--3--|  |--3--|  |--3--|  |--3--|    |--3--|  |--3--|  |--3--|  |--3--|
   E  E  E  E  E  E  E  E  E  E  E  E    E  E  E  E  E  E  E  E  E  E  E  E
|-18-15----------15-18-15----------15-|-18-13----------13-18-13----------13--|
|-------15----15----------15----15----|-------16----16----------16----16-----|
|----------15----------------15-------|----------15----------------15--------|
|-------------------------------------|--------------------------------------|
|-------------------------------------|--------------------------------------|
|-------------------------------------|--------------------------------------|
|
|  |--3--|  |--3--|  |--3--|  |--3--|    |--3--|  |--3--|  |--3--|  |--3--|
|  E  E  E  E  E  E  E  E  E  E  E  E    E  E  E  E  E  E  E  E  E  E  E  E
|-22-18----------18-22-18----------18-|-23-18----------18-23-18----------18--|
|-------20----20----------20----20----|-------20----20----------20----20-----|
|----------19----------------19-------|----------19----------------19--------|
|-------------------------------------|--------------------------------------|
|-------------------------------------|--------------------------------------|
|-------------------------------------|--------------------------------------|


   |--3--|  |--3--|  |--3--|  |--3--|    |--3--|  |--3--|  |--3--|  |--3--|
   E  E  E  E  E  E  E  E  E  E  E  E    E  E  E  E  E  E  E  E  E  E  E  E
|-18-15----------15-18-15----------15-|-20-14----------14-20-14----------14-|
|-------15----15----------15----15----|-------16----16----------16----16----|
|----------15----------------15-------|----------15----------------15-------|
|-------------------------------------|-------------------------------------|
|-------------------------------------|-------------------------------------|
|-------------------------------------|-------------------------------------|
|
|  |--3--|  |--3--|  |--3--|  |--3--|    |--3--|  |--3--|  |--3--|  |--3--|
|  E  E  E  E  E  E  E  E  E  E  E  E    E  E  E  E  E  E  E  E  E  E  E  E
|-22-18----------18-22-18----------18-|-23-18----------18-23-18----------18-|
|-------20----20----------20----20----|-------20----20----------20----20----|
|----------19----------------19-------|----------19----------------19-------|
|-------------------------------------|-------------------------------------|
|-------------------------------------|-------------------------------------|
|-------------------------------------|-------------------------------------|


   |--3--|  |--3--|  |--3--|  |--3--|   |--3--|  |--3--|  |--3--|  |-3--|
   E  E  E  E  E  E  E  E  E  E  E  E   E  E  E  E  E  E  E  E  E  E E  E
|-21-20-18----------------------------|---------------------------13-9----|
|----------19-18-16-------------------|------------11-13-14-13-11------11-|
|-------------------18-17-15----------|---------10------------------------|
|----------------------------16-15-13-|-8-10-11---------------------------|
|-------------------------------------|-----------------------------------|
|-------------------------------------|-----------------------------------|


   |--3--|  |-3--|  |-3--| |-3-|   |-3-| |-3-| |-3-|  |-3-|
   E  E  E  E  E E  E  E E E E E   E E E E E E E E E  E E E
|-14-13-11-----------------------|--------------------------|
|--------------------------------|-----------6-7-6---11-7---|
|----------11-10-8-11-10-8-------|---------8-------8------8-|
|--------------------------------|-------8------------------|
|--------------------------9-8-6-|-6-8-9--------------------|
|--------------------------------|--------------------------|


                                                                          ~~
  |-3-|  |-3--| |--3--|  |--3--|    |--3--|  |--3--|  |--3--|  |--3--|
  E E E  E E  E E  E  E  E  E  E    E  E  E  E  E  E  E  E  E  E  E  E    W
|--------------------------------|----------------------------------11-|-14----|
|--------------------------------|-------------13s16-------------13----|-------|
|----------8s11------------11s14-|-------11-14-------------11-14-------|-------|
|-----7-10-----------10-13-------|-10-13-------------10-13-------------|-------|
|-6-9-----------9-12-------------|-------------------------------------|-------|
|--------------------------------|-------------------------------------|-------|


Duration Legend
---------------
W - whole; H - half; Q - quarter; E - 8th; S - 16th; T - 32nd; X - 64th; a - acciaccatura
+ - note tied to previous; . - note dotted; .. - note double dotted
Uncapitalized letters represent notes that are staccato (1/2 duration)
Irregular groupings are notated above the duration line
Duration letters will always appear directly above the note/fret number it represents the
duration for.  Duration letters with no fret number below them represent rests.  Multi-
bar rests are notated in the form Wxn, where n is the number of bars to rest for.  Low
melody durations appear below the staff

Tablature Legend
----------------
 h   - hammer-on
 p   - pull-off
 b   - bend
 pb  - pre-bend
 r   - bend release (if no number after the r, then release immediately)
 /\  - slide into or out of (from/to "nowhere")
 s   - legato slide
 S   - shift slide
 - natural harmonic
[n]  - artificial harmonic
n(n) - tapped harmonic
 ~   - vibrato
 tr  - trill
 T   - tap
 TP  - trem. picking
 PM  - palm muting
\n/  - tremolo bar dip; n = amount to dip
 \n  - tremolo bar down
 n/  - tremolo bar up
/n\  - tremolo bar inverted dip
 =   - hold bend; also acts as connecting device for hammers/pulls
 <> - volume swell (louder/softer)
 x   - on rhythm slash represents muted slash
 o   - on rhythm slash represents single note slash

Misc Legend
-----------
 |  - bar
||  - double bar
||o - repeat start
o|| - repeat end
*|  - double bar (ending)
 :  - bar (freetime)
 $  - Segno
 &  - Coda
Tempo markers -  = BPM(8/16=s8/s16), where s8 = swing 8ths, s16 = swing 16ths
Suggest correction
Give kudos to tab author, rate the tab!
1 2 3 4 5
comments
print report bad tab
guest
You may want to rate the tab now too:
select rating
Wanna post a correction for this tab? Suggest correction