Oops, an error
Loading. Please wait.

Fermi Paradox Bass Tab

121 views 63 this week
no commentswrite comment
1 2 3 4 5
1 last vote to show rating
add to favorites
launch autoscroll
font size
0
reset
guitar tuner
Autoscroll
slow
fast
+/-
esc
set tempo
stop
Help us to improve Ultimate-Guitar.com Take our survey!
×
Author
Difficulty
Tuning
intermediate
D A D G B E
Intro
G|-----------------------------------------------------------------|
D|-----------------------------------------------------------------|
A|-------------------------------0-0---0---0---0-------------------|
D|-0---0---0---0-4-4---4---4---4-----------------3-3---3---3---3-4-|
   1 + 2 + 3 + 4 + 1 + 2 + 3 + 4 + 1 + 2 + 3 + 4 + 1 + 2 + 3 + 4 +

G|-----------------------------------------------------------------|
D|-----------------------------------------------------------------|
A|---------------0-0---0---0---0-4-4---4---4---4-------------------|
D|-4---4---4---4---------------------------------3-3---3---3---3-0-|
   1 + 2 + 3 + 4 + 1 + 2 + 3 + 4 + 1 + 2 + 3 + 4 + 1 + 2 + 3 + 4 +

G|-----------------------------------------------------------------|
D|-----------------------------------------------------------------|
A|-------------------------------0-----0---0---0-------------------|
D|-----0---0---0-4-----4---4---4-----------------3-----3---3---3-4-|
   1 + 2 + 3 + 4 + 1 + 2 + 3 + 4 + 1 + 2 + 3 + 4 + 1 + 2 + 3 + 4 +

G|---------------------------------------------------------------------------------|
D|---------------------------------------------------------------------------------|
A|---------------0-----0---0---0-4-----4---4---4-----------------------------------|
D|-----4---4---4---------------------------------3---3-3-3-3-3-3-3-3-3-3-3-7-7-7-4-|
   1 + 2 + 3 + 4 + 1 + 2 + 3 + 4 + 1 + 2 + 3 + 4 + 1 + 2 + 3 + 4 + 1 + 2 + 3 + 4 +

0:26
G|-----------------------------------------------------------------|
D|-----------------------------------------------------------------|
A|-----------------------------------------------------------------|
D|-----444444444444444444447-7-7-4-4---444444444444444444447-7-7-3-|
   1 + 2 + 3 + 4 + 1 + 2 + 3 + 4 + 1 + 2 + 3 + 4 + 1 + 2 + 3 + 4 +

G|-----------------------------------------------------------------|
D|-----------------------------------------------------------------|
A|-----------------------------------------------------------------|
D|-3---333333333333333333337-7-7-3-3---333333333333333333337-7-7-4-|
   1 + 2 + 3 + 4 + 1 + 2 + 3 + 4 + 1 + 2 + 3 + 4 + 1 + 2 + 3 + 4 +

G|-----------------------------------------------------------------|
D|-----------------------------------------------------------------|
A|-----------------------------------------------------------------|
D|---44444444444444444444447-7-7-4-4---444444444444444444447-7-7-3-|
   1 + 2 + 3 + 4 + 1 + 2 + 3 + 4 + 1 + 2 + 3 + 4 + 1 + 2 + 3 + 4 +

G|-----------------------------------------------------------------|
D|-----------------------------------------------------------------|
A|-----------------------------------------------------------------|
D|-3---333333333333333333337-7-7-3-3---3333333333333333333333333333|
   1 + 2 + 3 + 4 + 1 + 2 + 3 + 4 + 1 + 2 + 3 + 4 + 1 + 2 + 3 + 4 +

0:51
G|-----------------------------------------------------------------|
D|-----------------------------------------------------------------|
A|-----------------------------------------------------------------|
D|-4-------4-------4-4-----4-7-4-3---------3-----0-0---0-0-0-3---4-|
   1 + 2 + 3 + 4 + 1 + 2 + 3 + 4 + 1 + 2 + 3 + 4 + 1 + 2 + 3 + 4 +

G|-----------------------------------------------------------------|
D|-----------------------------------------------------------------|
A|-----------------------------------------------------------------|
D|---------4-------4-------4-7-4-3---------3-----0-0-0-0-0-0-0-0-0-|
   1 + 2 + 3 + 4 + 1 + 2 + 3 + 4 + 1 + 2 + 3 + 4 + 1 + 2 + 3 + 4 +

Verse 1:03
G|-----------------------------------------------------------------|
D|-----------------------------------------------------------------|
A|-0-0-------------0-0-------------5-5-5-5-5-5-5-5-5-5-5-5-5-5-5-5-|
D|-----------------------------------------------------------------|
   1 + 2 + 3 + 4 + 1 + 2 + 3 + 4 + 1 + 2 + 3 + 4 + 1 + 2 + 3 + 4 +

G|-----------------------------------------------------------------|
D|---------------------------------------------------5-------------|
A|---------------------------------3-3-3-3-3-3-3-3-3---3-3-3-3-3-3-|
D|-5-5-5-5-5-5-5-5-5-5-5-5-5-5-5-5---------------------------------|
   1 + 2 + 3 + 4 + 1 + 2 + 3 + 4 + 1 + 2 + 3 + 4 + 1 + 2 + 3 + 4 +

G|-----------------------------------------------------------------|
D|-----------------------------3-----------------------------------|
A|---------------------------------2-2-2-2-2-2-2-2-2-2-2-2-2-2-2-0-|
D|-3-3-3-3-3-3-3-3-3-3-3-3-3-3---3---------------------------------|
   1 + 2 + 3 + 4 + 1 + 2 + 3 + 4 + 1 + 2 + 3 + 4 + 1 + 2 + 3 + 4 +

G|-------------------------------------------------------------------|
D|-------------------------------------------------------------------|
A|-----------------------------------------2-3-5-------0---2---3-3-3-|
D|-2-2-2-2-2-2-2-2-2-2-2-2-2-2-2-2-6-7-9-----------6-----------------|
   1 + 2 + 3 + 4 + 1 + 2 + 3 + 4 + 1 + 2 + 3 + 4 + 1 + 2 + 3 + tripl

Chorus 1:27
G|-----------------------------------------------------------------|
D|-----------------------------------------------------------------|
A|---------7---------------7---------------5-----------------------|
D|-7---7-----7-7-5-5---5-----5-5-4-----4-4---4-4-3-----3---2-----7-|
   1 + 2 + 3 + 4 + 1 + 2 + 3 + 4 + 1 + 2 + 3 + 4 + 1 + 2 + 3 + 4 +

G|-----------------------------------------------------------------|
D|-----------------------------------------------------------------|
A|---------7---------------7---------------5-----------------------|
D|-7---7-7---7-7-5-----5-5---5-5-4-----4-4---4-4-3-----3-3-2-----7-|
   1 + 2 + 3 + 4 + 1 + 2 + 3 + 4 + 1 + 2 + 3 + 4 + 1 + 2 + 3 + 4 +

1:40
G|-----------------------------------------------------------------|
D|-----------------------------------------------------------------|
A|---------7---------------7---------------5-----------------------|
D|-7---7-----7-7-5-----5-----5-5-4-----4-4---4-4-3-----3-3-2-----7-|
   1 + 2 + 3 + 4 + 1 + 2 + 3 + 4 + 1 + 2 + 3 + 4 + 1 + 2 + 3 + 4 +

G|-----------------------------------------------------------------|
D|-----------------------------------------------------------------|
A|---------7---------------7-----------5---5-----------------------|
D|-7---7-7---7-7-5-----5-5---5-5-4-------4---4-4-3-3-3-3-3-2-2-2-7-|
   1 + 2 + 3 + 4 + 1 + 2 + 3 + 4 + 1 + 2 + 3 + 4 + 1 + 2 + 3 + 4 +

Interlude 1:52
G|-----------------------------------------------------------------|
D|-----------------------------------------------------------------|
A|-----------------------------------------------------------------|
D|-4-----------------------7-7-7-3---------------0---------7-7-7-4-|
   1 + 2 + 3 + 4 + 1 + 2 + 3 + 4 + 1 + 2 + 3 + 4 + 1 + 2 + 3 + 4 +

G|-----------------------------------------------------------------|
D|-----------------------------------------------------------------|
A|-----------------------------------------------------------------|
D|-------------------------7-7-7-3---------------0-0-------7-7-7-4-|
   1 + 2 + 3 + 4 + 1 + 2 + 3 + 4 + 1 + 2 + 3 + 4 + 1 + 2 + 3 + 4 +

Verse 2:05
G|-----------------------------------------------------------------|
D|-----------------------------------------------------------------|
A|-----------------------------------------------------------------|
D|-----444444444444444444447-7-7-4-4---444444444444444444447-7-7-3-|
   1 + 2 + 3 + 4 + 1 + 2 + 3 + 4 + 1 + 2 + 3 + 4 + 1 + 2 + 3 + 4 +

G|-----------------------------------------------------------------|
D|-----------------------------------------------------------------|
A|-----------------------------------------------------------------|
D|-3---333333333333333333337-7-7-3-3---333333333333333333337-7-7-4-|
   1 + 2 + 3 + 4 + 1 + 2 + 3 + 4 + 1 + 2 + 3 + 4 + 1 + 2 + 3 + 4 +

G|-----------------------------------------------------------------|
D|-----------------------------------------------------------------|
A|-----------------------------------------------------------------|
D|---44444444444444444444447-7-7-4-4---444444444444444444447-7-7-3-|
   1 + 2 + 3 + 4 + 1 + 2 + 3 + 4 + 1 + 2 + 3 + 4 + 1 + 2 + 3 + 4 +

G|-----------------------------------------------------------------|
D|-----------------------------------------------------------------|
A|-----------------------------------------------------------------|
D|-3---333333333333333333337-7-7-3-3---3333333333333333333333333333|
   1 + 2 + 3 + 4 + 1 + 2 + 3 + 4 + 1 + 2 + 3 + 4 + 1 + 2 + 3 + 4 +

Pre Chorus 2:29
G|-----------------------------------------------------------------|
D|-----------------------------------------------------------------|
A|-0-0-------------0-0-------------5-5-5-5-5-5-5-5-5-5-5-5-5-5-5-5-|
D|-----------------------------------------------------------------|
   1 + 2 + 3 + 4 + 1 + 2 + 3 + 4 + 1 + 2 + 3 + 4 + 1 + 2 + 3 + 4 +

G|-----------------------------------------------------------------|
D|---------------------------------------------------5-------------|
A|---------------------------------3-3-3-3-3-3-3-3-3---3-3-3-3-3-3-|
D|-5-5-5-5-5-5-5-5-5-5-5-5-5-5-5-5---------------------------------|
   1 + 2 + 3 + 4 + 1 + 2 + 3 + 4 + 1 + 2 + 3 + 4 + 1 + 2 + 3 + 4 +

G|-----------------------------------------------------------------|
D|-----------------------------------------------------------------|
A|-------------------------------0-2-2-2-2-2-2-2-2-2-2-2-2-2-2-2-0-|
D|-3-3-3-3-3-3-3-3-3-3-3-3-3-3-3-----------------------------------|
   1 + 2 + 3 + 4 + 1 + 2 + 3 + 4 + 1 + 2 + 3 + 4 + 1 + 2 + 3 + 4 +

G|-------------------------------------------------------------------|
D|-------------------------------------------------------------------|
A|-----------------------------------------2-3-5-------0---2---3-3-3-|
D|-2-2-2-2-2-2-2-2-2-2-2-2-2-2-2-2-6-7-9-----------6-----------------|
   1 + 2 + 3 + 4 + 1 + 2 + 3 + 4 + 1 + 2 + 3 + 4 + 1 + 2 + 3 + tripl

Chorus 2:55
G|-----------------------------------------------------------------|
D|-----------------------------------------------------------------|
A|---------7---------------7---------------5-----------------------|
D|-7---7-----7-7-5-5---5-----5-5-4-----4-----4-4-3-----3---2-----7-|
   1 + 2 + 3 + 4 + 1 + 2 + 3 + 4 + 1 + 2 + 3 + 4 + 1 + 2 + 3 + 4 +

G|-----------------------------------------------------------------|
D|-----------------------------------------------------------------|
A|---------7---------------7---------------5-----------------------|
D|-7---7-7---7-7-5-----5-----5-5-4-----4-4---4-4-3-----3-3-2-----7-|
   1 + 2 + 3 + 4 + 1 + 2 + 3 + 4 + 1 + 2 + 3 + 4 + 1 + 2 + 3 + 4 +

G|-----------------------------------------------------------------|
D|-----------------------------------------------------------------|
A|---------7---------------7---------------5-----------------------|
D|-7---7-----7-7-5-----5-----5-5-4-----4-4---4-4-3-----3-3-2-----7-|
   1 + 2 + 3 + 4 + 1 + 2 + 3 + 4 + 1 + 2 + 3 + 4 + 1 + 2 + 3 + 4 +

G|-----------------------------------------------------------------|
D|-----------------------------------------------------------------|
A|---------7---------------7---------------5-----------------------|
D|-7---7-----7-7-5-----5-5---5-5-4-----4-----4-4-3-3---3-3-2-2-2-2-|
   1 + 2 + 3 + 4 + 1 + 2 + 3 + 4 + 1 + 2 + 3 + 4 + 1 + 2 + 3 + 4 +

Rest


Interlude 3:26
G|-----------------------------------------------------------------|
D|-----------------------------------------------------------------|
A|-----------------------------------------------------------------|
D|-0-0-----------------------------2-2-----------------------------|
   1 + 2 + 3 + 4 + 1 + 2 + 3 + 4 + 1 + 2 + 3 + 4 + 1 + 2 + 3 + 4 +

Solo 3:32
G|-----------------------------------------------------------------|
D|-----------------------------------------------------------------|
A|-0-0-----------0-----0---0---------------------------------------|
D|---------------------------------3-3-----------3-----3---3-----2-|
   1 + 2 + 3 + 4 + 1 + 2 + 3 + 4 + 1 + 2 + 3 + 4 + 1 + 2 + 3 + 4 +

G|-----------------------------------------------------------------|
D|-----------------------------------------------------------------|
A|-----------------------------------------------------------------|
D|-0-0-----------0-----0---0---0---2-2-----------2-----2-------2-5-|
   1 + 2 + 3 + 4 + 1 + 2 + 3 + 4 + 1 + 2 + 3 + 4 + 1 + 2 + 3 + 4 +

G|-----------------------------------------------------------------|
D|-----------------------------------------------------------------|
A|-0-0-----------0-----0---3---2-0---------------------------------|
D|---------------------------------3-3-----------3-----3---2-------|
   1 + 2 + 3 + 4 + 1 + 2 + 3 + 4 + 1 + 2 + 3 + 4 + 1 + 2 + 3 + 4 +

G|-----------------------------------------------------------------|
D|-----------------------------------------------------------------|
A|-----------------------------------------------------------------|
D|-0-0-----0-----0-----0---0---0-0-2-2-----------2-------------2-2-|
   1 + 2 + 3 + 4 + 1 + 2 + 3 + 4 + 1 + 2 + 3 + 4 + 1 + 2 + 3 + 4 +

Solo part 2 3:59
G|-----------------------------------------------------------------|
D|-----------------------------------------------------------------|
A|---------------------------------------------------------3-3-3-3-|
D|-3-----3-----3-----3-----3-3-3-3-0-----0-----0-------------------|
   1 + 2 + 3 + 4 + 1 + 2 + 3 + 4 + 1 + 2 + 3 + 4 + 1 + 2 + 3 + 4 +

G|-----------------------------------------------------------------|
D|-----------------------------------------------------------------|
A|-2-----2-----2-----2-----0-------7-----7-----7-----7-----7---7---|
D|-----------------------------3-----------------------------------|
   1 + 2 + 3 + 4 + 1 + 2 + 3 + 4 + 1 + 2 + 3 + 4 + 1 + 2 + 3 + 4 +

4:12
G|-----------------------------------------------------------------|
D|---------------------------------3-----3-----3---3---3h5-3---2h3-|
A|-0-----0-----0---2---3---5---2-----------------------------------|
D|-----------------------------------------------------------------|
   1 + 2 + 3 + 4 + 1 + 2 + 3 + 4 + 1 + 2 + 3 + 4 + 1 + 2 + 3 + 4 +

G|-----------------------------------------------------------------|
D|-----------------------------------------------------------------|
A|-5-----5-----5-----------5-5-3-3-7-----7-----7---7---7---7---7---|
D|-----------------------------------------------------------------|
   1 + 2 + 3 + 4 + 1 + 2 + 3 + 4 + 1 + 2 + 3 + 4 + 1 + 2 + 3 + 4 +

Interlude 4:26
G|-------------------------------------|
D|-----------------9-9-9-9-10-10-10-10-|
A|-8-8-8-8-8-8-8-8---------------------|
D|-------------------------------------|
   1 + 2 + 3 + 4 + 1 + 2 + 3  +  4  +  

Pre Chorus 4:29
G|-----------------------------------------------------------------|
D|-----------------------------------------------------------------|
A|-0-0-------------0-0-------------5-----5-5-----5-5-----5-5-----5-|
D|-----------------------------------------------------------------|
   1 + 2 + 3 + 4 + 1 + 2 + 3 + 4 + 1 + 2 + 3 + 4 + 1 + 2 + 3 + 4 +

G|-----------------------------------------------------------------|
D|---------------------------------------------------5-----5-3-----|
A|---------------------------------3-----3-3-----3-3---3-3-----3-3-|
D|-5-----5-5-----5-5-----5-5-----5---------------------------------|
   1 + 2 + 3 + 4 + 1 + 2 + 3 + 4 + 1 + 2 + 3 + 4 + 1 + 2 + 3 + 4 +

G|-----------------------------------------------------------------|
D|-----------------------------------------------------------------|
A|---------------------------------2-2-2-2-2-2-2-2-2-2-2-2-2-2-2-2-|
D|-3-3-3-3-3-3-3-3-3-3-3-3-3-3-3-3---------------------------------|
   1 + 2 + 3 + 4 + 1 + 2 + 3 + 4 + 1 + 2 + 3 + 4 + 1 + 2 + 3 + 4 +

G|-------------------------------------------------------------------|
D|-------------------------------------------------------------------|
A|-----------------------------------------2-3-5-------0---2---3-3-3-|
D|-2-2-2-2-2-2-2-2-2-2-2-2-2-2-2-2-6-7-9-----------6-----------------|
   1 + 2 + 3 + 4 + 1 + 2 + 3 + 4 + 1 + 2 + 3 + 4 + 1 + 2 + 3 + tripl

Chorus 4:54
G|-----------------------------------------------------------------|
D|-----------------------------------------------------------------|
A|---------7---------------7---------------5-----------------------|
D|-7---7-----7-7-5-5---5-----5-5-4-----4-4---4-4-3-3-3-3---2-----7-|
   1 + 2 + 3 + 4 + 1 + 2 + 3 + 4 + 1 + 2 + 3 + 4 + 1 + 2 + 3 + 4 +

G|-----------------------------------------------------------------|
D|-----------------------------------------------------------------|
A|---------7---------------7---------------5-----------------------|
D|-7---7-7---7-7-5-----5-5---5-5-4-----4-4---4-4-3-----3-3-2-----7-|
   1 + 2 + 3 + 4 + 1 + 2 + 3 + 4 + 1 + 2 + 3 + 4 + 1 + 2 + 3 + 4 +

G|-----------------------------------------------------------------|
D|-----------------------------------------------------------------|
A|---------7---------------7---------------5-----------------------|
D|-7---7-7---7-7-5-----5-----5-5-4-----4-4---4-4-3-----3---2-----7-|
   1 + 2 + 3 + 4 + 1 + 2 + 3 + 4 + 1 + 2 + 3 + 4 + 1 + 2 + 3 + 4 +

G|-----------------------------------------------------------------|
D|-----------------------------------------------------------------|
A|---------7---------------7---------------5-----------------------|
D|-7---7-----7-7-5-----5-----5-5-4-----4-4---4-4-3-----3-3-2-----7-|
   1 + 2 + 3 + 4 + 1 + 2 + 3 + 4 + 1 + 2 + 3 + 4 + 1 + 2 + 3 + 4 +

Outro Solo 5:18
G|-----------------------------------------------------------------|
D|-----------------------------------------------------------------|
A|---------7---------------7---------------5-----------------------|
D|-7---7-----7-7-5-5---5-5---5-5-4-4---4-4---4-4-3-----3---2-----7-|
   1 + 2 + 3 + 4 + 1 + 2 + 3 + 4 + 1 + 2 + 3 + 4 + 1 + 2 + 3 + 4 +

G|-----------------------------------------------------------------|
D|-----------------------------------------------------------------|
A|---------7---------------7---------------5-----------------------|
D|-7---7-----7-7-5-5---5-----5-5-4-----4-----4-4-3-----3---2-----7-|
   1 + 2 + 3 + 4 + 1 + 2 + 3 + 4 + 1 + 2 + 3 + 4 + 1 + 2 + 3 + 4 +

G|-----------------------------------------------------------------|
D|-----------------------------------------------------------------|
A|---------7---------------7---------------5-----------------------|
D|-7---7-----7-7-5-----5-----5-5-4-----4-----4-4-3-----3---2-----7-|
   1 + 2 + 3 + 4 + 1 + 2 + 3 + 4 + 1 + 2 + 3 + 4 + 1 + 2 + 3 + 4 +

G|-----------------------------------------------------------------|
D|-----------------------------------------------------------------|
A|---------7---------------7---------------5-----------------------|
D|-7---7-7---7-7-5-----5-5---5-5-4-----4-4---4-4-3-----3-3-2-----7-|
   1 + 2 + 3 + 4 + 1 + 2 + 3 + 4 + 1 + 2 + 3 + 4 + 1 + 2 + 3 + 4 +

5:43
G|-----------------------------------------------------------------|
D|-----------------------------------------------------------------|
A|---------7---------------7---------------5-----------------------|
D|-7---7-----7-7-5-5---5-5---5-5-4-----4-4---4-4-3-----3---2-----7-|
   1 + 2 + 3 + 4 + 1 + 2 + 3 + 4 + 1 + 2 + 3 + 4 + 1 + 2 + 3 + 4 +

G|-----------------------------------------------------------------|
D|-----------------------------------------------------------------|
A|---------7---------------7---------------5-----------------------|
D|-7---7-----7-7-5-----5-----5-5-4-----4-4---4-4-3-----3-3-2-----7-|
   1 + 2 + 3 + 4 + 1 + 2 + 3 + 4 + 1 + 2 + 3 + 4 + 1 + 2 + 3 + 4 +

G|-----------------------------------------------------------------|
D|-----------------------------------------------------------------|
A|---------7---------------7---------------5-----------------------|
D|-7---7-7---7-7-5-----5-----5-5-4-----4-----4-4-3-----3-3-2-----7-|
   1 + 2 + 3 + 4 + 1 + 2 + 3 + 4 + 1 + 2 + 3 + 4 + 1 + 2 + 3 + 4 +

G|-----------------------------------------------------------------|
D|-----------------------------------------------------------------|
A|---------7---------------7---------------5-----------------------| Repeating and fading out
D|-7---7-----7-7-5-----5-----5-5-4-----4-----4-4-3-----3-3-2-----7-|
   1 + 2 + 3 + 4 + 1 + 2 + 3 + 4 + 1 + 2 + 3 + 4 + 1 + 2 + 3 + 4 +

Tabbed by Dave Vucko
Suggest correction
Give kudos to tab author, rate the tab!
1 2 3 4 5
comments
print report bad tab
guest
You may want to rate the tab now too:
select rating
Wanna post a correction for this tab? Suggest correction