Oops, an error
Loading. Please wait.

Fermi Paradox Tab

829 views 108 this week
no commentswrite comment
1 2 3 4 5
x 3
add to favorites
launch autoscroll
font size
0
reset
how to read this tab
guitar tuner
Autoscroll
slow
fast
+/-
esc
set tempo
stop
Help us to improve Ultimate-Guitar.com Take our survey!
×
Author
Difficulty
advanced
Standard Tuning : E A D G B E

E-------------------------------------------------------------------------------------5-8-7b8r7p5*7b8r7p5---|
B---------8b10r8p5h8b10r8b10--*10r8p5h8p6--5h6p5------------------------------------5---------------------6-|
G-----4/5-----------------------------------------7p5h7p5h7b9r7p5h7b9-4/7-7\5-5---5-------------------------|
D--/7---------------------------------------------------------------------------7---------------------------|
A-----------------------------------------------------------------------------------------------------------|
E-----------------------------------------------------------------------------------------------------------|

E-------8-----8------------10h12b14-14r12-10----------------------------------------------------13----13/17-|
B--8b10---b10---b10r----10-------------------10-10h12p10\9--/17\12\-/15-13p12h13----15----15/17----15-------|
G--------------------10----------------------------------------------------------14----14-------------------|
D-----------------------------------------------------------------------------------------------------------|
A-----------------------------------------------------------------------------------------------------------|
E-----------------------------------------------------------------------------------------------------------|

E--17-------17------------------------------17p13-------------------19\17p13-------------------19\17p13-----|
B-----17-------17---------------13b15-b15~--------15-------------17----------15-------------17----------15--|
G--------19--------X----14----------------------------16p14/17-17----------------16p14/17-17----------------|
D--------------------19----12-------------------------------------------------------------------------------|
A-----------------------------12----------------------------------------------------------------------------|
E-----------------------------------------------------------------------------------------------------------|
                                                                         
E-----------------19\16-17-16-17b18-b18r17-17-16-17-----20-19b20~----------20b22r20b22-tb24r22p20~-20b22r20-|
B--------------17-----------------------------------/17-----------17----17----------------------------------|
G--16p14/17-17-------------------------------------------------------17-------------------------------------|
D-----------------------------------------------------------------------------------------------------------|
A-----------------------------------------------------------------------------------------------------------|
E-----------------------------------------------------------------------------------------------------------|

E--22b24b25r22~-22b24b25r22~-22b24r--20-19-17----------------------------------------------17-----------17--|
B---------------------------------------------18-17-15----------------------------------18----18----18------|
G------------------------------------------------------16-14-13----------------14/19-19----------19---------|
D---------------------------------------------------------------15-14-12-14-15------------------------------|
A-----------------------------------------------------------------------------------------------------------|
E-----------------------------------------------------------------------------------------------------------|

E--------20---------------------|
B--20b22----b22~--22b24b25r22~--|
G-------------------------------|
D-------------------------------|
A-------------------------------|
E-------------------------------|

Legend 

~ : Vibrato
p : Pull Off
h : Hammer on
8b10 : Bend from the 8th fret to the 10th fret
10r8 : Release the bend to the initial note 
* : Pinch Harmonic
t : Tap. Just one case here : you will have to tap the note holding the bend with the left hand, just as I do
on the video. In the original Syn doesn't tap it, he bends the note again, you need a very soft string gauge 
to do the same.
\ or / : Slide
X : Mute the note. Just one case here.
Suggest correction
Give kudos to tab author, rate the tab!
1 2 3 4 5
comments
print report bad tab
guest
You may want to rate the tab now too:
select rating
Wanna post a correction for this tab? Suggest correction