Oops, an error
Loading. Please wait.

Fiction Tab

version 3
version 3

Intro

Whole song

Interactive

872 views 1 this week
no commentswrite comment
1 2 3 4 5
not so good
x 3
add to favorites
launch autoscroll
font size
0
reset
how to read this tab
guitar tuner
Tab Pro tools
  • play this tab
  • loop segment
  • change instrument
  • show fretboard
  • metronome
Autoscroll
slow
fast
+/-
esc
set tempo
stop
Contributor
----------------------------------------------------------------------------
                         Fiction - Avenged Sevenfold
----------------------------------------------------------------------------
Tabbed by: zippyman69
Email: wrmdirtbikeracer@yahoo.com

Tuning:Drop D
The song is mainly piano but I have tabbed a guitar part out for it that sounds similiar 
to the piano part.

Intro
|-----------------------------------------------------------------------|
|---13--12--13--9--5--8--9--8---13--12--13--9--5--8--9--8---------------|
|-----------------------------------------------------------------------|
|-----------------------------------------------------------------------|
|-----------------------------------------------------------------------|
|-----------------------------------------------------------------------|

|-----------------------------------------------------------------------|
|---13--12--13--9--5--8--9--8---13--12--13--9--5--8--9--8---------------|
|-----------------------------------------------------------------------|
|-----------------------------------------------------------------------|
|-----------------------------------------------------------------------|x8
|-----------------------------------------------------------------------|

|--------------------------------------|
|---11--11-11--13--13--13--17--17--17--|
|--------------------------------------|
|--------------------------------------|
|--------------------------------------|
|--------------------------------------|


|-----------------------------------------------------------------------|
|---13--12--13--9--5--8--9--8---13--12--13--9--5--8--9--8---------------|
|-----------------------------------------------------------------------|
|-----------------------------------------------------------------------|
|-----------------------------------------------------------------------|
|-----------------------------------------------------------------------|

|--------------------------------------|
|---11--11-11--13--13--13--17--17--17--|
|--------------------------------------|
|--------------------------------------|
|--------------------------------------|
|--------------------------------------|

  0:50 - 0:51
|------------------|
|------------------|
|--5-5-5-7-7-9-----|
|------------------|
|------------------|
|------------------|

  0:57 - 0:59
|--------------------------------------|
|--------------------------------------|
|--12-12-12-9-9-9---7------------------|
|--------------------12---10-----------|
|--------------------------------------|
|--------------------------------------|

  1:02 - 1:03
|------------------|
|------------------|
|--5-5-5-7-7-9-----|
|------------------|
|------------------|
|------------------|

  1:08 - 1:11
|---------------------|
|---------------------|
|--12-12--9-9--9-9-9--|
|---------------------|
|---------------------|
|---------------------|

  1:12 - 1:19
|-----------------------------------------------------------------------|
|---13--12--13--9--5--8--9--8---13--12--13--9--5--8--9--8---------------|
|-----------------------------------------------------------------------|
|-----------------------------------------------------------------------|
|-----------------------------------------------------------------------|
|-----------------------------------------------------------------------|

  1:20 - 1:23
|--------------------------------------|
|---11--11-11--13--13--13--17--17--17--|
|--------------------------------------|
|--------------------------------------|
|--------------------------------------|
|--------------------------------------|

  1:26 - 1:27
|------------------|
|------------------|
|--5-5-5-7-7-9-----|
|------------------|
|------------------|
|------------------|

  1:33 - 1:36
|---------------------------------|
|---------------------------------|
|--12-12-9-9--7-7-----------------|
|-----------------12-10-----------|
|---------------------------------|
|---------------------------------|

  1:44 - 1:47
|---------------------------------|
|---------------------------------|
|--12-12-9-9--7-7-----------------|
|-----------------12-10-----------|
|---------------------------------|
|---------------------------------|

  1:48 - 2:05
|---------------------------------------------------------------|
|---------------------------------------------------------------|
|----5h6p5--5h6p5--5h6p5----------------------------------------|
|---7------7------7-------6---6---6---10---10---10---6---6---6--|
|--5------5------5--------6---6---6---10---10---10---6---6---6--|
|-------------------------6---6---6---10---10---10---6---6---6--|

|---------------------------------------|
|---------------------------------------|
|---------------------------------------|
|---10---10---10---6---6---6-6-6-6-6-6--|
|---10---10---10---6---6---6-6-6-6-6-6--|
|---10---10---10---6---6---6-6-6-6-6-6--|

  2:06 - 2:13
|-----------------------------------------------------------------------|
|---13--12--13--9--5--8--9--8---13--12--13--9--5--8--9--8---------------|
|-----------------------------------------------------------------------|
|-----------------------------------------------------------------------|
|-----------------------------------------------------------------------|
|-----------------------------------------------------------------------|

  2:14 - 2:17
|--------------------------------------|
|---11--11-11--13--13--13--17--17--17--|
|--------------------------------------|
|--------------------------------------|
|--------------------------------------|
|--------------------------------------|

  2:20 - 2:21
|------------------|
|------------------|
|--5-5-5-7-7-9-----|
|------------------|
|------------------|
|------------------|


  2:28 - 2:30
|--------------------------------------|
|--------------------------------------|
|--12-12-12-9-9-9---7------------------|
|---------------------10---------------|
|--------------------------------------|
|--------------------------------------|

  2:32 - 2:33
|------------------|
|------------------|
|--5-5-5-7-7-9-----|
|------------------|
|------------------|
|------------------|

  2:39 - 2:41
|-------------------|
|-------------------|
|--9-9--12-12--9-9--|
|-------------------|
|-------------------|
|-------------------|

 2:42 - 2:59
|---------------------------------------------------------------|
|---------------------------------------------------------------|
|----5h6p5--5h6p5--5h6p5----------------------------------------|
|---7------7------7-------6---6---6---10---10---10---6---6---6--|
|--5------5------5--------6---6---6---10---10---10---6---6---6--|
|-------------------------6---6---6---10---10---10---6---6---6--|

|---------------------------------------|
|---------------------------------------|
|---------------------------------------|
|---10---10---10---6---6---6-6-6-6-6-6--|
|---10---10---10---6---6---6-6-6-6-6-6--|
|---10---10---10---6---6---6-6-6-6-6-6--|

  3:00 - 3:30
|-----------------------------------------------------------------|
|-----10-8----10-8----10-8----8-6----10-8----10-8----10-8----10-8-|
|--7-9-----5-7-----4-5-----2-4----4-5-----5-7-----7-9-----5-7-----|
|-----------------------------------------------------------------|
|-----------------------------------------------------------------|
|-----------------------------------------------------------------|

|--------------------------------------------------------------------|
|-----10-8----10-8-----10-8----8-6---10-8---10-8---10-8----10-8------|
|--7-9------5-7-----4-5-----2-4----4-5----5-7----7-9-----5-7---------|
|--------------------------------------------------------------------|
|--------------------------------------------------------------------|
|--------------------------------------------------------------------|

The rest of the song is where The Rev and Matt Shadows sing together.
R.I.P. The Rev
comments
We did not receive enough feedback on this tab! Please rate:
print report bad tab
1 2 3 4 5
I want to post or [tab]
guest
You may want to rate the tab now too:
select rating
Please do not post tabs as comments. Select "correction" instead!