Oops, an error
Loading. Please wait.

Forgotten Faces tab

version 2
version 2

Whole song

Interactive

43 views 1 this week
no commentswrite comment
1 2 3 4 5
3 more votes to show rating
add to favorites
×
Save as Personal and add changes to this tab that will be seen only by you. Learn more ›
×
You can save this tab as Personal to edit and correct it or add notes. All changes will be seen only by you. Learn more »
launch autoscroll
font size
0
reset
how to read this tab
guitar tuner
edit
Autoscroll
slow
fast
+/-
esc
set tempo
stop
Band: Avenged Sevenfold
Song: Forgotten Faces
Tuning: Drop D
Tabbed by: Peryitex


[Intro/Verse 1]

e|-------------------------|-------------------------|-------------------------|-------------------------|
B|-------------------------|-------------------------|-------------------------|-------------------------|
G|-------------7-----------|-------------7/-8--------|-------------5-----------|-------------8/10--------|
D|-------------7-----------|-------------x/-x--------|-------------5-----------|-------------x--x--------| 4x
A|-------------5-----------|-------------5/-6--------|-------------3-----------|-------------6/-8--------|
D|-0--0--0--0--------------|-0--0--0--0--------------|-0--0--0--0--------------|-0--0--0--0--------------|

   PM--------|              |----------|              |----------|              |----------|


e|-------------------------|-------------------------|-------------------------|-------------------------|
B|-------------------------|-------------------------|-------------------------|-------------------------|
G|-------------------------|-------------------------|-------------5-----------|-------------8/10--------|
D|-------------------------|-------------------------|-------------5-----------|-------------x--x--------| 
A|-0-----------------------|-------------------------|-------------3-----------|-------------6/-8--------|
D|-0-----------------------|-------------------------|-0--0--0--0--------------|-0--0--0--0--------------|

   PM--|                                              |----------|              |----------|


e|-------------------------|-------------------------|-------------------------|-------------------------|
B|-------------------------|-------------------------|-------------------------|-------------------------|
G|-------------7-----------|-------------7/-8--------|-------------5-----------|-------------8/10--------|
D|-------------7-----------|-------------x/-x--------|-------------5-----------|-------------x--x--------| 3x
A|-------------5-----------|-------------5/-6--------|-------------3-----------|-------------6/-8--------|
D|-0--0--0--0--------------|-0--0--0--0--------------|-0--0--0--0--------------|-0--0--0--0--------------|

   PM--------|              |----------|              |----------|              |----------|


                    Bend the powerchords in the 2nd measure slightly.

e|-------------------------|-------------------------|-------------------------|---------------------------|
B|-------------------------|-------------------------|-------------------------|---------------------------|
G|-7--7--7-----------------|-7b-7b----7b----7b-7b-7b-|-5-----5-----5--5--5--5--|-8-----8/10----10--8/10/12-|
D|-7--7--7-----------------|-7b-7b----7b----7b-7b-7b-|-5-----5-----5--5--5--5--|-x-----x--x-----x--x--x--x-|4x
A|-5--5--5-----------------|-5b-5b----5b----5b-5b-5b-|-3-----3-----3--3--3--3--|-6-----6/-8-----8--6/-8/10-|
D|-------------------------|-------------------------|-------------------------|---------------------------|


[Bridge]

e|-------------------------|-------------------------|
B|-------------------------|-------------------------|
G|-7\----------------------|-------------------------|
D|-7\----0-----------------|-1-------3-------5-------| 2x
A|-5\----0-----------------|-1-------3-------5-------|
D|-------0-----------------|-1-------3-------5-------|


[Verse 2]

e|-------------------------|-------------------------|-------------------------|---------------------------|
B|-------------------------|-------------------------|-------------------------|---------------------------|
G|-7--7--7-----------------|-7b-7b----7b----7b-7b-7b-|-5-----5-----5--5--5--5--|-8-----8/10----10--8/10/12-|
D|-7--7--7-----------------|-7b-7b----7b----7b-7b-7b-|-5-----5-----5--5--5--5--|-x-----x--x-----x--x--x--x-|4x
A|-5--5--5-----------------|-5b-5b----5b----5b-5b-5b-|-3-----3-----3--3--3--3--|-6-----6/-8-----8--6/-8/10-|
D|-------------------------|-------------------------|-------------------------|---------------------------|


[Verse 3]

e|-------------------------|-------------------------|-------------------------|-------------------------|
B|-------------------------|-------------------------|-------------------------|-------------------------|
G|-7--------9--------10----|-5-------10---------9----|-------------------------|-------------------------|
D|-x--------x---------x----|-x--------x---------x----|-5--------5--5-----5--5--|-------------------------|
A|-5--------7---------8----|-3--------8---------7----|-5--------5--5-----5--5--|----4h-5h-7p-5p-4--------|
D|-------------------------|-------------------------|-5--------5--5-----5--5--|-7-----------------7-----|


e|-------------------------|-------------------------|-------------------------|-------------------------|
B|-------------------------|-------------------------|-------------------------|-------------------------|
G|-7--------9--------10----|-5-------10---------9----|-------------------------|-------------------------|
D|-x--------x---------x----|-x--------x---------x----|-5--------5--5-----5--5--|-7-----3-----5-----7-----|
A|-5--------7---------8----|-3--------8---------7----|-5--------5--5-----5--5--|-7-----3-----5-----7-----|
D|-------------------------|-------------------------|-5--------5--5-----5--5--|-7-----3-----5-----7-----|

                                                                                 PM-----------------|

e|-------------------------|-------------------------|-------------------------|-------------------------|
B|-------------------------|-------------------------|-------------------------|-------------------------|
G|-7--------9--------10----|-5-------10---------9----|-------------------------|-------------------------|
D|-x--------x---------x----|-x--------x---------x----|-5--------5--5-----5--5--|-------------------------|
A|-5--------7---------8----|-3--------8---------7----|-5--------5--5-----5--5--|----4h-5h-7p-5p-4--------|
D|-------------------------|-------------------------|-5--------5--5-----5--5--|-7-----------------7-----|


e|-------------------------|-------------------------|-------------------------|-------------------------|
B|-------------------------|-------------------------|-------------------------|-------------------------|
G|-7--------9--------10----|-5-------10---------9----|-------------------------|-------------------------|
D|-x--------x---------x----|-x--------x---------x----|-5--------5--5-----5--5--|-------------------------|
A|-5--------7---------8----|-3--------8---------7----|-5--------5--5-----5--5--|-0--7--5--4--5--4--------|
D|-------------------------|-------------------------|-5--------5--5-----5--5--|-------------------7-----|


[Bridge] 

e|-------------------------|-------------------------|-------------------------|-------------------------|
B|-------------------------|-------------------------|-------------------------|-------------------------|
G|-------------------------|-------------------------|-------------------------|-------------------------|
D|-------------0-----------|-------------5-----------|-------------3-----------|-------8-----------3-----| 4x
A|-0--0--0--0--0-----------|-5--5--5--5--5-----------|-3--3--3--3--3-----------|-8--8--8-----3--3--3-----|
D|-0--0--0--0--0-----------|-5--5--5--5--5-----------|-3--3--3--3--3-----------|-8--8--8-----3--3--3-----|
  
   PM--------|               |---------|               |---------|               |---|       |---|

e|-------------------------|-------------------------|-------------------------|-------------------------|
B|-------------------------|-------------------------|-------------------------|-------------------------|
G|-------------------------|-------------------------|-------------------------|-------------------------|
D|-0-----------------------|-------------------------|-------------------------|-------------------------|
A|-0-----------------------|-------------------------|-------------------------|-------------------------|
D|-0-----------------------|-------------------------|-------------------------|-------------------------|
 

[Verse 3]

e|---------------------------------|---------------------------------|
B|---------------------------------|---------------------------------|
G|---------------------------------|---------------------------------|
D|-0------------0------0---0---0-0-|-3------------3------3---3---3-3-| 3x
A|-0--------0---0------0---0---0-0-|-3--------3---3------3---3---3-3-|
D|-0--------0---0------0---0---0-0-|-3--------3---3------3---3---3-3-|
 
            PM                                PM

e|---------------------------------|---------------------------------|
B|---------------------------------|---------------------------------|
G|---------------------------------|---------------------------------|
D|-0------------0------0---0---0-0-|-3-------------------------------|
A|-0--------0---0------0---0---0-0-|-3---3-3-3-3-3-3-3-3-3-3-3-3-3-3-|
D|-0--------0---0------0---0---0-0-|-3---3-3-3-3-3-3-3-3-3-3-3-3-3-3-|

            PM                           PM------------------------|

e|---------------------------------|---------------------------------|
B|---------------------------------|---------------------------------|
G|-3---3-3-3-3-3-3-3-3-3-3-3-3-3-3-|-----------------5---5-5-5-5-5-5-|
D|-3---3-3-3-3-3-3-3-3-3-3-3-3-3-3-|-0---0-0-0-0-0-0-5---5-5-5-5-5-5-|
A|-1---1-1-1-1-1-1-1-1-1-1-1-1-1-1-|-0---0-0-0-0-0-0-3---3-3-3-3-3-3-|
D|---------------------------------|-0---0-0-0-0-0-0-----------------|


e|---------------------------------|---------------------------------|
B|---------------------------------|---------------------------------|
G|-3---3-------3-----3-3---3---3-3-|-----------------5---5-5-5-5-5-5-|
D|-3---3---3---3-----3-3---3---3-3-|-0---0-0-0-0-0-0-5---5-5-5-5-5-5-|
A|-1---1---1---1-----1-1---1---1-1-|-0---0-0-0-0-0-0-3---3-3-3-3-3-3-|
D|---------------------------------|-0---0-0-0-0-0-0-----------------|

           PM

e|---------------------------------|---------------------------------|
B|---------------------------------|---------------------------------|
G|---------------------------------|-7---7-7-7--10---9---9-9-9--12---|
D|---------------------------------|-x---x-x-x---x---x---x-x-x---x---|
A|---------------------------------|-5---5-5-5---8---7---7-7-7--10---|
D|---------------------------------|---------------------------------|



e|---------------------------------|
B|---------------------------------|
G|-3---3-----------3---------------|
D|-3---3---3-------3---------------|
A|-1---1---1-------1---------------|
D|---------------------------------|

           PM

e|---------------------------------|
B|-----------------10--------------|
G|-10---10-10------12b-------------|
D|--x----x--x----------------------|
A|--8----8--8----------------------|
D|---------------------------------|


[Outro]

e|---------------------------------|
B|---------------------------------|
G|-7\------------------------------|
D|-7\------0-----------------------| 3x
A|-5\------0-----------------------|
D|---------0-----------------------|


e|---------------------------------|
B|---------------------------------|
G|-7\------------------------------|
D|-7\-------0---------------7------| 5x
A|-5\-------0---0-0---------7------|
D|----------0---0-0-1p0-3---7------|

                PM-|

e|---------------------------------|
B|---------------------------------|
G|-7\------------------------------|
D|-7\------0-----------------------|
A|-5\------0-----------------------|
D|---------0-----------------------|

************************************

| x   Dead note
| h   Hammer-on
| p   Pull-off
| b   Bend
| /   Slide up
| \   Slide down
| PM  Palm mute

************************************

            
            
Suggest correction
Creating personal tab
Creating personal tab
You can edit any tab online and save it as your Personal.

You can edit, replace or remove any tab part or add personal notes – all changes will be seen only by you.

Personal tabs can be accessed anytime from any device, even offline.
Learn more »
Give kudos to tab author, rate the tab!
1 2 3 4 5
comments
print report bad tab
guest
You may want to rate the tab now too:
select rating
Wanna post a correction for this tab? Suggest correction