Oops, an error
Loading. Please wait.

Girl I Know tab

version 3
version 3

Whole song

Interactive

2,714 views 6 this week
no commentswrite comment
1 2 3 4 5
x 5
add to favorites
×
Save as Personal and add changes to this tab that will be seen only by you. Learn more ›
×
You can save this tab as Personal to edit and correct it or add notes. All changes will be seen only by you. Learn more »
launch autoscroll
font size
0
reset
how to read this tab
guitar tuner
edit
Autoscroll
slow
fast
+/-
esc
set tempo
stop
Tabbed by: Joshua Garcia (joshuag523@aol.com)

Tabs for the song: Girl I Know by Avenged Sevenfold
Please rate and let me know if you have any corrections. Thank you.


Tuning: Drop D (D A D G B E)


Intro
Guitar 1/2:
E||----------------------------------------------|--------------------------------|
B||----------------------------------------------|--------------------------------|
G||----------------------------------------------|--------------------------------|
D||-----------------------------------------3----|--------------------------------| x4
A||-------------------------------------3-5---5--|--------------------------------|
D||--0000-3-0000-5b~----0-3-5-6-0-3-5-6----------|--0000-3-0000-5b~-----5b7r~--3--|
     ....   ....        . . . . . . . . . .         ....   ....


Verse
Guitar 1/2:
E||------------------------------------------------------------------|
B||------------------------------------------------------------------|
G||------------------------------------------------------------------|
D||--0-0---0-0-0---0-0-0---0-0-0---0-0-0---0-0-0---0-0~--3~--5~--6~--|
A||--0-0---0-0-0---0-0-0---0-0-0---0-0-0---0-0-0---0-0~--3~--5~--6~--|
D||--0-0---0-0-0---0-0-0---0-0-0---0-0-0---0-0-0---0-0~--3~--5~--6~--|
     . .   . . .   . . .   . . .   . . .   . . .   . 

E||---------------------------------------------------------------------|
B||---------------------------------------------------------------------|
G||---------------------------------------------------------------------|
D||--0-0---0-0-0---0-0-0---0-0-0---0-0-0---0-0-0---0-/12~--10~--6~--5~--|
A||--0-0---0-0-0---0-0-0---0-0-0---0-0-0---0-0-0---0-/12~--10~--6~--5~--|
D||--0-0---0-0-0---0-0-0---0-0-0---0-0-0---0-0-0---0-/12~--10~--6~--5~--|
     . .   . . .   . . .   . . .   . . .   . . .   . 

E||-----------------------------------------|
B||-----------------------------------------|
G||-----------------------------------------|
D||-----------------------------------------|
A||-----------------------------------------|
D||--0-0-6~---0--00--6~---0-0-6~---0-/-12~--|


                                (2)
E||------------------------------------------------------------------|
B||------------------------------------------------------------------|
G||------------------------------------------------------------------|
D||--0-0---0-0-0---0-0-0---0-0-0-0-0-0-0---0-0-0---0-0~--3~--5~--6~--|
A||--0-0---0-0-0---0-0-0---0-0-0-0-0-0-0---0-0-0---0-0~--3~--5~--6~--|
D||--0-0---0-0-0---0-0-0---0-0-0-0-0-0-0---0-0-0---0-0~--3~--5~--6~--|
     . .   . . .   . . .   . . . . . . .   . . .   . 

E||---------------------------------------------------------------------|
B||---------------------------------------------------------------------|
G||---------------------------------------------------------------------|
D||--0-0---0-0-0---0-0-0---0-0-0---0-0-0---0-0-0---0-/12~--10~--6~--5~--|
A||--0-0---0-0-0---0-0-0---0-0-0---0-0-0---0-0-0---0-/12~--10~--6~--5~--|
D||--0-0---0-0-0---0-0-0---0-0-0---0-0-0---0-0-0---0-/12~--10~--6~--5~--|
     . .   . . .   . . .   . . .   . . .   . . .   . 



Pre-Chorus
Guitar 1:
E||------------------------------------------|
B||------------------------------------------|
G||------------------------------------------|
D||--7-77-7-99-77----7-77-7-77-7-99-77----7--|
A||---------------10-------------------10----|
D||------------------------------------------|
       ..   .. ..      ..   ..   .. ..

Guitar 2:
E||--------------------|
B||--------------------|
G||--------------------|
D||--8888888888888888--|
A||--8888888888888888--|
D||--8888888888888888--|


Guitar 1:
E||---------------------------------------------------------------|
B||---------------------------------------------------------------|
G||-----------------------14-16-17-16-14----------------14-16-17--|
D||--------------15-17-18----------------18-17-15-17-18-----------|
A||--14-15-17-18--------------------------------------------------|
D||---------------------------------------------------------------|


E||--------------------------------15-17-18-18b20~----/20b22~~-(r)--|
B||--------------15-17-18-15-17-18----------------------------------|
G||--14-15-17-18----------------------------------------------------|
D||-----------------------------------------------------------------|
A||-----------------------------------------------------------------|
D||-----------------------------------------------------------------|


Guitar 2:
E||------------------------------------|
B||------------------------------------|
G||------------------------------------|
D||--10101010101010101010101010101010--|
A||--10101010101010101010101010101010--|
D||--10101010101010101010101010101010--|
     (^10's)



Chorus
Guitar 1:
E||------------------------------------|  \
B||------------------------------------|   \
G||-----------10-----------13~b14~~~~--|    \
D||--12121212-----12121212-------------|     \
A||------------------------------------|      \
D||------------------------------------|       \
     . . . .      . . . .                       \
                                                 \
Guitar 2:                                         \
E||------------------------------|                 \
B||------------------------------|                  \
G||------------------------------|                   \
D||------------------------------|                    \
A||------------------------------|                     \
D||--0000-3-0000-5b~----/10-12~--|                      \
                                                         \
                                                          \
                                                           \
Guitar 1:                                                   \
E||---------------------------------------|                  \
B||------------15/18~-------------17/20~--|                   \___ (Repeat)
G||------15-----------------17------------|                   /
D||---12----12-----------14----14---------|                  /
A||---------------------------------------|                 /
D||---------------------------------------|                /
                                                          /
                                                         /
Guitar 2:                                               /
E||---------------------------------------|            /
B||---------------------------------------|           /
G||------------15/19~-------------17/21~--|          /
D||---12-15-12-----------14-17-14---------|         /
A||---------------------------------------|        /
D||---------------------------------------|       /
                                                 /
                                                /
Guitar 3:                                      /
E||-----------------------------|             /
B||-----------------------------|            /
G||-----------------------------|           /
D||--88888888-1010101010101010--|          /
A||--88888888-1010101010101010--|         /
D||--88888888-1010101010101010--|        /



Guitar 1:
E||---------------------------------------------------------------|
B||--/14-17-14-17/20~----/22~---20b22r20~---/18~---13/15~---/17~--|
G||---------------------------------------------------------------|
D||---------------------------------------------------------------|
A||---------------------------------------------------------------|
D||---------------------------------------------------------------|


Guitar 2:
E||-------------------------------------------------------------|
B||-------------------------------------------------------------|
G||--/15-18----18/21~----/22~---21b22r21~---/19~----------------|
D||---------17-------------------------------------/15~---/17~--|
A||-------------------------------------------------------------|
D||-------------------------------------------------------------|


Guitar 3:
E||----------------------------------------------------------|
B||----------------------------------------------------------|
G||----------------------------------------------------------|
D||--11-11-11-11-11-11-11-11--12~----10~----8~----8~----10~--|
A||--12-12-12-12-12-12-12-12--12~----10~----8~----8~----10~--|
D||--11-11-11-11-11-11-11-11--12~----10~----8~----8~----10~--|



Pre-Verse
Guitar 1:
E||---------------------------------------------------|
B||---------------------------------------------------|
G||--------------10h12p10----------------10h12p10-----|
D||--------10-12----------12-------10-12----------12--|
A||--10-12-------------------10-12--------------------|
D||---------------------------------------------------|
     .  .  .  .              .  .  .  .


E||-------------------------------------------------|
B||-------------------------------------------------|
G||--------------------12-14-/-17-14----14-17b19~~--|
D||--------------12-15---------------17-------------|
A||--------12-15------------------------------------|
D||--12-15------------------------------------------|
     .  .  .  .


Guitar 2:
E||-----------------------------------------|
B||-----------------------------------------|
G||-----------------------------------------|
D||-----------------------------------------|
A||-----------------------------------------|
D||--0-0-6~---0--00--6~---0-0-6~---0-/-12~--|



Verse
Guitar 1/2:
E||------------------------------------------------------------------|
B||------------------------------------------------------------------|
G||------------------------------------------------------------------|
D||--0-0---0-0-0---0-0-0---0-0-0---0-0-0---0-0-0---0-0~--3~--5~--6~--|
A||--0-0---0-0-0---0-0-0---0-0-0---0-0-0---0-0-0---0-0~--3~--5~--6~--|
D||--0-0---0-0-0---0-0-0---0-0-0---0-0-0---0-0-0---0-0~--3~--5~--6~--|
     . .   . . .   . . .   . . .   . . .   . . .   . 

E||---------------------------------------------------------------------|
B||---------------------------------------------------------------------|
G||---------------------------------------------------------------------|
D||--0-0---0-0-0---0-0-0---0-0-0---0-0-0---0-0-0---0-/12~--10~--6~--5~--|
A||--0-0---0-0-0---0-0-0---0-0-0---0-0-0---0-0-0---0-/12~--10~--6~--5~--|
D||--0-0---0-0-0---0-0-0---0-0-0---0-0-0---0-0-0---0-/12~--10~--6~--5~--|
     . .   . . .   . . .   . . .   . . .   . . .   . 

E||-----------------------------------------|
B||-----------------------------------------|
G||-----------------------------------------|
D||-----------------------------------------|
A||-----------------------------------------|
D||--0-0-6~---0--00--6~---0-0-6~---0-/-12~--|


E||------------------------------------------------------------------|
B||------------------------------------------------------------------|
G||------------------------------------------------------------------|
D||--0-0---0-0-0---0-0-0---0-0-0---0-0-0---0-0-0---0-0~--3~--5~--6~--|
A||--0-0---0-0-0---0-0-0---0-0-0---0-0-0---0-0-0---0-0~--3~--5~--6~--|
D||--0-0---0-0-0---0-0-0---0-0-0---0-0-0---0-0-0---0-0~--3~--5~--6~--|
     . .   . . .   . . .   . . .   . . .   . . .   . 

E||---------------------------------------------------------------------|
B||---------------------------------------------------------------------|
G||---------------------------------------------------------------------|
D||--0-0---0-0-0---0-0-0---0-0-0---0-0-0---0-0-0---0-/12~--10~--6~--5~--|
A||--0-0---0-0-0---0-0-0---0-0-0---0-0-0---0-0-0---0-/12~--10~--6~--5~--|
D||--0-0---0-0-0---0-0-0---0-0-0---0-0-0---0-0-0---0-/12~--10~--6~--5~--|
     . .   . . .   . . .   . . .   . . .   . . .   . 



Pre-Chorus
Guitar 1:
E||------------------------------------------|
B||------------------------------------------|
G||------------------------------------------|
D||--7-77-7-99-77----7-77-7-77-7-99-77----7--|
A||---------------10-------------------10----|
D||------------------------------------------|
       ..   .. ..      ..   ..   .. ..

Guitar 2:
E||--------------------|
B||--------------------|
G||--------------------|
D||--8888888888888888--|
A||--8888888888888888--|
D||--8888888888888888--|


Guitar 1:
E||---------------------------------------------|
B||---------------------------------------------|
G||--15-14-12----------17-15-14-----------------|
D||-----------15-14-12----------17-15-14-15-14--|
A||---------------------------------------------|
D||---------------------------------------------|


E||------------------------------------------15-17-18-18b20~----/20b22~~-(r)--|
B||--------------------------------15-17-18-----------------------------------|
G||-----------------------14-16-17--------------------------------------------|
D||--------------15-17-18-----------------------------------------------------|
A||--14-15-17-18--------------------------------------------------------------|
D||---------------------------------------------------------------------------|



Chorus
Guitar 1:
E||------------------------------------|  \
B||------------------------------------|   \
G||-----------10-----------13~b14~~~~--|    \
D||--12121212-----12121212-------------|     \
A||------------------------------------|      \
D||------------------------------------|       \
     . . . .      . . . .                       \
                                                 \
Guitar 2:                                         \
E||------------------------------|                 \
B||------------------------------|                  \
G||------------------------------|                   \
D||------------------------------|                    \
A||------------------------------|                     \
D||--0000-3-0000-5b~----/10-12~--|                      \
                                                         \
                                                          \
                                                           \
Guitar 1:                                                   \
E||---------------------------------------|                  \
B||------------15/18~-------------17/20~--|                   \___ (Repeat)
G||------15-----------------17------------|                   /
D||---12----12-----------14----14---------|                  /
A||---------------------------------------|                 /
D||---------------------------------------|                /
                                                          /
                                                         /
Guitar 2:                                               /
E||---------------------------------------|            /
B||---------------------------------------|           /
G||------------15/19~-------------17/21~--|          /
D||---12-15-12-----------14-17-14---------|         /
A||---------------------------------------|        /
D||---------------------------------------|       /
                                                 /
                                                /
Guitar 3:                                      /
E||-----------------------------|             /
B||-----------------------------|            /
G||-----------------------------|           /
D||--88888888-1010101010101010--|          /
A||--88888888-1010101010101010--|         /
D||--88888888-1010101010101010--|        /



Guitar 1:
E||---------------------------------------------------------------|
B||--/14-17-14-17/20~----/22~---20b22r20~---/18~---13/15~---/17~--|
G||---------------------------------------------------------------|
D||---------------------------------------------------------------|
A||---------------------------------------------------------------|
D||---------------------------------------------------------------|


Guitar 2:
E||-------------------------------------------------------------|
B||-------------------------------------------------------------|
G||--/15-18----18/21~----/22~---21b22r21~---/19~----------------|
D||---------17-------------------------------------/15~---/17~--|
A||-------------------------------------------------------------|
D||-------------------------------------------------------------|


Guitar 3:
E||----------------------------------------------------------|
B||----------------------------------------------------------|
G||----------------------------------------------------------|
D||--11-11-11-11-11-11-11-11--12~----10~----8~----8~----10~--|
A||--12-12-12-12-12-12-12-12--12~----10~----8~----8~----10~--|
D||--11-11-11-11-11-11-11-11--12~----10~----8~----8~----10~--|



Pre-Solo
Guitar 1:
E||----------------|--------------------|-----------|
B||----------------|--w'5w~--w~--w~--w--|--w'3~--w--|
G||--w'5~-----www--|--------------------|-----------|
D||----------------|--------------------|-----------|
A||----------------|--------------------|-----------|
D||----------------|--------------------|-----------|


Guitar 2:
E||-----------------------------------------|
B||-----------------------------------------|
G||-----------------------------------------|
D||-----------------------------------------|
A||-----------------------------------------|
D||--0-0-6~---0--00--6~---0-0-6~---0-/-12~--|



Solo
Guitar 1:
E||------------------------------------------------------18b20~-18-18-15-17b~18~--|
B||----------------------13b15~~----/1515151515151515--15-------------------------|
G||--------------------------------------------------14---------------------------|
D||--1212121212121212--12---------------------------------------------------------|
A||------------------12-----------------------------------------------------------|
D||-------------------------------------------------------------------------------|


E||----------------------------------------|
B||------13b15~--13-10---------------------|
G||--------------------13-10---------------|
D||--/12---------------------12-10---------|
A||--------------------------------12-10~--|
D||----------------------------------------|


E||------------------------------------------------------17b20~--|
B||----------------------13b15~~----/1515151515151515--15--------|
G||--------------------------------------------------14----------|
D||--1212121212121212--12----------------------------------------|
A||------------------12------------------------------------------|
D||--------------------------------------------------------------|


E||--101010101010-/19\-888888-/19\-777777-/19\-55555555-\-11111111--|
B||-----------------------------------------------------------------|
G||-----------------------------------------------------------------|
D||-----------------------------------------------------------------|
A||-----------------------------------------------------------------|
D||-----------------------------------------------------------------|
                                                           (^1's)

Guitar 2:
E||------------------------------------------------------------------|
B||------------------------------------------------------------------|
G||------------------------------------------------------------------|
D||--0-0---0-0-0---0-0-0---0-0-0---0-0-0---0-0-0---0-0~--3~--5~--6~--|
A||--0-0---0-0-0---0-0-0---0-0-0---0-0-0---0-0-0---0-0~--3~--5~--6~--|
D||--0-0---0-0-0---0-0-0---0-0-0---0-0-0---0-0-0---0-0~--3~--5~--6~--|
     . .   . . .   . . .   . . .   . . .   . . .   . 

E||---------------------------------------------------------------------|
B||---------------------------------------------------------------------|
G||---------------------------------------------------------------------|
D||--0-0---0-0-0---0-0-0---0-0-0---0-0-0---0-0-0---0-/12~--10~--6~--5~--|
A||--0-0---0-0-0---0-0-0---0-0-0---0-0-0---0-0-0---0-/12~--10~--6~--5~--|
D||--0-0---0-0-0---0-0-0---0-0-0---0-0-0---0-0-0---0-/12~--10~--6~--5~--|
     . .   . . .   . . .   . . .   . . .   . . .   . 



Guitar 1:
E||--10-10-8----8------8---8----------------------------------------------------|
B||----------10---10-9-------10-9-8------9---9-8--------------------------------|
G||---------------------------------10-7---------10-7h10p7------5h7/10---10-7~--|
D||---------------------------------------------------------5h7-----------------|
A||-----------------------------------------------------------------------------|
D||-----------------------------------------------------------------------------|


E||--10-10-8----8------8---8-------------------------------------------13h15/20-20-17--|
B||----------10---10-9-------10-9-8------------------------------13h15-----------------|
G||---------------------------------10-7---------7h10/17-17-14-------------------------|
D||--------------------------------------10-7h10---------------------------------------|
A||------------------------------------------------------------------------------------|
D||------------------------------------------------------------------------------------|


Guitar 2:
E||------------------------------------------------------------------|
B||------------------------------------------------------------------|
G||------------------------------------------------------------------|
D||--0-0---0-0-0---0-0-0---0-0-0---0-0-0---0-0-0---0-0~--3~--5~--6~--|
A||--0-0---0-0-0---0-0-0---0-0-0---0-0-0---0-0-0---0-0~--3~--5~--6~--|
D||--0-0---0-0-0---0-0-0---0-0-0---0-0-0---0-0-0---0-0~--3~--5~--6~--|
     . .   . . .   . . .   . . .   . . .   . . .   . 




Guitar 1:
E||--10-10-8----8------8---8----------------------------------------------------|
B||----------10---10-9-------10-9-8------9---9-8--------------------------------|
G||---------------------------------10-7---------10-7h10p7------5h7/10---10-7~--|
D||---------------------------------------------------------5h7-----------------|
A||-----------------------------------------------------------------------------|
D||-----------------------------------------------------------------------------|


E||--10-10-8----8------8---8-------------------------------------------13h15/20-20-17--20b22~--|
B||----------10---10-9-------10-9-8------------------------------13h15-------------------------|
G||---------------------------------10-7---------7h10/17-17-14---------------------------------|
D||--------------------------------------10-7h10-----------------------------------------------|
A||--------------------------------------------------------------------------------------------|
D||--------------------------------------------------------------------------------------------|


Guitar 2:
E||--14-14-12----12-------12---12---------------------------------------------------------------|
B||-----------14----14-13---------14-13-12-------13---13-12-------------------------------------|
G||----------------------------------------14-11------------14-11h14p11-------9h11/14---14-11~--|
D||----------------------------------------------------------------------9h11-------------------|
A||---------------------------------------------------------------------------------------------|
D||---------------------------------------------------------------------------------------------|


E||--14-14-12----12-------12---12------------------------------------------------------------------|
B||-----------14----14-13---------14-13-12---------------------------------------------------------|
G||----------------------------------------14-11----------11h14/21-21-18---------15-16--/14-14-14--|
D||----------------------------------------------14-11h14------------------14-15-------------------|
A||------------------------------------------------------------------------------------------------|
D||------------------------------------------------------------------------------------------------|


Guitar 3:
E||---------------------------------------------------------------------|
B||---------------------------------------------------------------------|
G||---------------------------------------------------------------------|
D||--0-0---0-0-0---0-0-0---0-0-0---0-0-0---0-0-0---0-/12~--10~--6~--5~--|
A||--0-0---0-0-0---0-0-0---0-0-0---0-0-0---0-0-0---0-/12~--10~--6~--5~--|
D||--0-0---0-0-0---0-0-0---0-0-0---0-0-0---0-0-0---0-/12~--10~--6~--5~--|
     . .   . . .   . . .   . . .   . . .   . . .   . 



Pre-Bridge
Guitar 1:
E||----------------------------------------------------|
B||----------------------------------------------------|
G||--12~---10~---9-10~-----/9-10-14-14~---12~---10-9~--|
D||----------------------------------------------------|
A||----------------------------------------------------|
D||----------------------------------------------------|


Guitar 2:
E||-------------------------------------------------------|
B||-------------------------------------------------------|
G||--15~---14~---12-14~-----/12-14-17-17~---15~---14-12~--|
D||-------------------------------------------------------|
A||-------------------------------------------------------|
D||-------------------------------------------------------|


Guitar 3:
E||-----------------------------------------------------|
B||-----------------------------------------------------|
G||-----------------------------------------------------|
D||--8~--8888888888888-10~--10101010101010101010101010--|
A||--8~--8888888888888-10~--10101010101010101010101010--|
D||--8~--8888888888888-10~--10101010101010101010101010--|



Bridge
Guitar 1:
E||--------------------------------17-18~\15~--15b17~--|-----------------------------------------|
B||-----------------------/15~--18---------------------|--/20~--17/20\17~--14/17\14~--11/14\10~--|
G||-----------14-15~\14~-------------------------------|-----------------------------------------|
D||--/12~--15------------------------------------------|-----------------------------------------|
A||----------------------------------------------------|-----------------------------------------|
D||----------------------------------------------------|-----------------------------------------|


Guitar 2:
E||----------------------------------------------------|--/18~--15/18\15~--12/15\12~--9/12\9~--|
B||-----------15-15~\14~-----------18-20~\17~--17b18~--|---------------------------------------|
G||--------15-------------------19---------------------|---------------------------------------|
D||--/12~-----------------/15~-------------------------|---------------------------------------|
A||----------------------------------------------------|---------------------------------------|
D||----------------------------------------------------|---------------------------------------|



Guitar 1:
E||-----------------------------------------------|
B||-----------------------------------------------|
G||-----------------------------------------------|
D||--/12~-----/14~---/15~---/14~-----/15~---/17~--|
A||-----------------------------------------------|
D||-----------------------------------------------|


Guitar 2:
E||-----------------------------------------------|
B||-----------------------------------------------|
G||--/10~-----/12~---/14~---/12~-----/14~---/15~--|
D||-----------------------------------------------|
A||-----------------------------------------------|
D||-----------------------------------------------|



Interlude
Guitar 2:
E||-----------------------------------------|
B||-----------------------------------------|
G||-----------------------------------------|
D||-----------------------------------------|
A||-----------------------------------------|
D||--0-0-6~---0--00--6~---0-0-6~---0-00--6~-|


Guitar 1:
E||------------------|
B||--w'3~----w-w-w~--|
G||------------------|
D||------------------|
A||------------------|
D||------------------|


Guitar 2:
E||-----------------------------------------|
B||-----------------------------------------|
G||-----------------------------------------|
D||-----------------------------------------|
A||-----------------------------------------|
D||--0-0-6~---0--00--6~---0-0-6~---0-/-12~--|



Chorus
Guitar 1:
E||------------------------------------|  \
B||------------------------------------|   \
G||-----------10-----------13~b14~~~~--|    \
D||--12121212-----12121212-------------|     \
A||------------------------------------|      \
D||------------------------------------|       \
     . . . .      . . . .                       \
                                                 \
Guitar 2:                                         \
E||------------------------------|                 \
B||------------------------------|                  \
G||------------------------------|                   \
D||------------------------------|                    \
A||------------------------------|                     \
D||--0000-3-0000-5b~----/10-12~--|                      \
                                                         \
                                                          \
                                                           \
Guitar 1:                                                   \
E||---------------------------------------|                  \
B||------------15/18~-------------17/20~--|                   \___ (Repeat)
G||------15-----------------17------------|                   /
D||---12----12-----------14----14---------|                  /
A||---------------------------------------|                 /
D||---------------------------------------|                /
                                                          /
                                                         /
Guitar 2:                                               /
E||---------------------------------------|            /
B||---------------------------------------|           /
G||------------15/19~-------------17/21~--|          /
D||---12-15-12-----------14-17-14---------|         /
A||---------------------------------------|        /
D||---------------------------------------|       /
                                                 /
                                                /
Guitar 3:                                      /
E||-----------------------------|             /
B||-----------------------------|            /
G||-----------------------------|           /
D||--88888888-1010101010101010--|          /
A||--88888888-1010101010101010--|         /
D||--88888888-1010101010101010--|        /



Guitar 1:
E||---------------------------------------------------------------|
B||--/14-17-14-17/20~----/22~---20b22r20~---/18~---13/15~---/17~--|
G||---------------------------------------------------------------|
D||---------------------------------------------------------------|
A||---------------------------------------------------------------|
D||---------------------------------------------------------------|


Guitar 2:
E||-------------------------------------------------------------|
B||-------------------------------------------------------------|
G||--/15-18----18/21~----/22~---21b22r21~---/19~----------------|
D||---------17-------------------------------------/15~---/17~--|
A||-------------------------------------------------------------|
D||-------------------------------------------------------------|



Outro
Guitar 1/2:
E||------------------------------------------------------------------|
B||------------------------------------------------------------------|
G||------------------------------------------------------------------|
D||--0-0---0-0-0---0-0-0---0-0-0---0-0-0---0-0-0---0-0~--3~--5~--6~--|
A||--0-0---0-0-0---0-0-0---0-0-0---0-0-0---0-0-0---0-0~--3~--5~--6~--|
D||--0-0---0-0-0---0-0-0---0-0-0---0-0-0---0-0-0---0-0~--3~--5~--6~--|
     . .   . . .   . . .   . . .   . . .   . . .   . 


                                (2)
E||---------------------------------------------------------------------|
B||---------------------------------------------------------------------|
G||---------------------------------------------------------------------|
D||--0-0---0-0-0---0-0-0---0-0-0-0-0-0-0---0-0-0---0-/12~--10~--6~--5~--|
A||--0-0---0-0-0---0-0-0---0-0-0-0-0-0-0---0-0-0---0-/12~--10~--6~--5~--|
D||--0-0---0-0-0---0-0-0---0-0-0-0-0-0-0---0-0-0---0-/12~--10~--6~--5~--|
     . .   . . .   . . .   . . . . . . .   . . .   . 


E||-------|
B||-------|
G||-------|
D||--0-0--|
A||--0-0--|
D||--0-0--|
     . .




Tablature Legend
----------------
 h   hammer-on
 p   pull-off
 b   bend
 pb  pre-bend
 r   release bend
 ~   hold / vibrato
 .   palm mute
 /   slide up
 \   slide down
 *   pinch harmonic
 '   natural harmonic
 x   mute note
 T   tap

            
            
Suggest correction
Creating personal tab
Creating personal tab
You can edit any tab online and save it as your Personal.

You can edit, replace or remove any tab part or add personal notes – all changes will be seen only by you.

Personal tabs can be accessed anytime from any device, even offline.
Learn more »
comments
print report bad tab
guest
You may want to rate the tab now too:
select rating
Wanna post a correction for this tab? Suggest correction