Oops, an error
Loading. Please wait.

God Damn Tab

version 1
version 1

Whole song

  • Two main distortion Guitars. There is Only one gui... Show more

Interactive

17,779 views 303 this week
7 commentsread comments
1 2 3 4 5
x 16
add to favorites
×
Save as Personal and add changes to this tab that will be seen only by you. Learn more ›
×
You can save this tab as Personal to edit and correct it or add notes. All changes will be seen only by you. Learn more »
save as personal
new!
launch autoscroll
font size
0
reset
how to read this tab
guitar tuner
backing track
0:00
0:00
Autoscroll
slow
fast
+/-
esc
set tempo
stop
Author
Difficulty
Tuning
intermediate
D A D G B E
About this tab version
Two main distortion Guitars. There is Only one guitar in the solo as well as the Clean Intro. Used https://www.youtube.com/watch?v=GTxMRKNGVJk , to help write the tab. Will probably have a few errors. Does not contain the acoustic parts before the solo. Was this info helpful? Yes No
Tuning is Drop D

[Intro]
Distortion Guitar

  PM.---------------          PM.-------------         PM.---------------
e|--------------------------------------------------|-------------------------|
B|--------------------------------------------------|-------------------------|
G|--------------------------------------------------|-------------------------|
D|--------------------------------------------------|-------------------------|
A|-0-0-0-0-0-0-0-0-0-0-0------0-0-0-0-0-0-0-0-0-0-0-|----3-3-3-3-3-3-3-3-3-3-3|
D|-0-0-0-0-0-0-0-0-0-0-0------0-0-0-0-0-0-0-0-0-0-0-|----3-3-3-3-3-3-3-3-3-3-3|

    PM--------------
e|----------------------------|
B|----------------------------|
G|----------------------------|
D|----------------------------|
A|--3-3-3-3-3-3-3-3-3-3-3-----|
D|--3-3-3-3-3-3-3-3-3-3-3-----|

(Clean Guitar( First note in the riffs are hit during the non-muted notes of distortion guitar))
                       (Let ring)                    (Let ring)              
e|--------------------------------------------------------|------------------------|
B|---------------8---10--8-------------------8---10--8----|-----------------11-----|
G|-----7-------7---7----------------7------7---7----------|------10------10----10--|
D|---------5----------------------------5-----------------|-----------8------------|
A|--------------------------------------------------------|------------------------|
D|--------------------------------------------------------|------------------------|
      (Let ring) 
e|-------------------------------------------|
B|-13--11------------------11----13----------|
G|--------------10------10----10-------------|
D|--------------------8----------------------|
A|-------------------------------------------|
D|-------------------------------------------|

[Verse 1]

Distortion Guitar 1 
     PM.---------               PM.--------                 PM.---------
e|--------------------------------------------------------|----------------------------------|
B|--------------------------------------------------------|----------------------------------|
G|--------------------------------------------------------|----------------------------------|
D|--------------------------------------------------------|----------------------------------|
A|-0--------------1-0-1-0-1-0-0--------------1-0-1-0-1-0-0|--------------1-0-1-0-1-0-0-------|
D|-0--0-0-0-0-0-0-1-0-1-0-1-0-0--0-0-0-0-0-0-1-0-1-0-1-0-0|--0-0-0-0-0-0-1-0-1-0-1-0-0-------|
                                                                           Pm.----------
e|--------------------------------------------------------------------|--------------------------------|
B|--------------------------------------------------------------------|--------------------------------|
G|--------------------------------------------------------------------|--------------------------------|
D|--3-3-3-3-5-5-5-5-7-7-7-7-3-3-3-3-8-8-8-8-7-7-7-7-5-5-5-5-5-3-3-3-3-|--------------------------------|
A|--------------------------------------------------------------------|--0--------------1-0-1-0-1-0-0--|
D|--------------------------------------------------------------------|--0--0-0-0-0-0-0-1-0-1-0-1-0-0--|
        PM.-----               PM----
e|-----------------------------|----------------------------|
B|-----------------------------|----------------------------|
G|-----------------------------|----------------------------|
D|-----------------------------|----------------------------|
A|-0--------------1-0-1-0-1-0-0|--------------1-0-1-0-1-0-0-|
D|-0--0-0-0-0-0-0-1-0-1-0-1-0-0|--0-0-0-0-0-0-1-0-1-0-1-0-0-|


e|--------------------------------------------------------------------|--------------------------------|
B|--------------------------------------------------------------------|--------------------------------|
G|--------------------------------------------------------------------|----------------7----------------|
D|--3-3-3-3-5-5-5-5-7-7-7-7-3-3-3-3-8-8-8-8-7-7-7-7-5-5-5-5-5-3-3-3-3-|--7h9h10-7h9h10-----------------|
A|--------------------------------------------------------------------|--------------------------------|
D|--------------------------------------------------------------------|--------------------------------|


   PM.---------               PM.--------                 PM.---------
e|--------------------------------------------------------|----------------------------------|
B|--------------------------------------------------------|----------------------------------|
G|--------------------------------------------------------|----------------------------------|
D|--------------------------------------------------------|----------------------------------|
A|-0--------------1-0-1-0-1-0-0--------------1-0-1-0-1-0-0|--------------1-0-1-0-1-0-0-------|
D|-0--0-0-0-0-0-0-1-0-1-0-1-0-0--0-0-0-0-0-0-1-0-1-0-1-0-0|--0-0-0-0-0-0-1-0-1-0-1-0-0-------|
      
                                                                           Pm.----------
e|--------------------------------------------------------------------|--------------------------------|
B|--------------------------------------------------------------------|--------------------------------|
G|--------------------------------------------------------------------|--------------------------------|
D|--3-3-3-3-5-5-5-5-7-7-7-7-3-3-3-3-8-8-8-8-7-7-7-7-5-5-5-5-5-3-3-3-3-|--------------------------------|
A|--------------------------------------------------------------------|--0--------------1-0-1-0-1-0-0--|
D|--------------------------------------------------------------------|--0--0-0-0-0-0-0-1-0-1-0-1-0-0--|
        PM.-----               PM----
e|-----------------------------|----------------------------|
B|-----------------------------|----------------------------|
G|-----------------------------|----------------------------|
D|-----------------------------|----------------------------|
A|-0--------------1-0-1-0-1-0-0|--------------1-0-1-0-1-0-0-|
D|-0--0-0-0-0-0-0-1-0-1-0-1-0-0|--0-0-0-0-0-0-1-0-1-0-1-0-0-|


e|---------------------------------|-----------------------------------|
B|---------------------------------|-----------------------------------|
G|---------------------------------|-----------------------------------|
D|--3-3-3-3-5-5-5-5-7-7-7-7-3-3-3-3|-8-8-8-8-7-7-7-7-5-5-5-5-5-3-3-3-3-|
A|---------------------------------|-----------------------------------|
D|---------------------------------|-----------------------------------|


Distortion Guitar 2

 PM.---------               PM.--------                 PM.---------
e|--------------------------------------------------------|----------------------------------|
B|--------------------------------------------------------|----------------------------------|
G|--------------------------------------------------------|----------------------------------|
D|--------------------------------------------------------|----------------------------------|
A|-0--------------1-0-1-0-1-0-0--------------1-0-1-0-1-0-0|--------------1-0-1-0-1-0-0-------|
D|-0--0-0-0-0-0-0-1-0-1-0-1-0-0--0-0-0-0-0-0-1-0-1-0-1-0-0|--0-0-0-0-0-0-1-0-1-0-1-0-0-------|
                                                                           Pm.----------
e|--------------------------------------------------------------------|--------------------------------|
B|--------------------------------------------------------------------|--------------------------------|
G|--------------------------------------------------------------------|--------------------------------|
D|--------------------------------------------------------------------|--------------------------------|
A|-5-5-5-5-7-7-7-7-8-8-8-8-5-5-5-5-10-10-10-10-8-8-8-8-7-7-7-7-8-8-8-8|--0--------------1-0-1-0-1-0-0--|
D|--------------------------------------------------------------------|--0--0-0-0-0-0-0-1-0-1-0-1-0-0--|
        PM.-----               PM----
e|-----------------------------|----------------------------|
B|-----------------------------|----------------------------|
G|-----------------------------|----------------------------|
D|-----------------------------|----------------------------|
A|-0--------------1-0-1-0-1-0-0|--------------1-0-1-0-1-0-0-|
D|-0--0-0-0-0-0-0-1-0-1-0-1-0-0|--0-0-0-0-0-0-1-0-1-0-1-0-0-|


e|--------------------------------------------------------------------|--------------------------------|
B|--------------------------------------------------------------------|--------------------------------|
G|--------------------------------------------------------------------|--------------------------------|
D|--------------------------------------------------------------------|----------------7---------------|
A|-5-5-5-5-7-7-7-7-8-8-8-8-5-5-5-5-10-10-10-10-8-8-8-8-7-7-7-7-8-8-8-8|--7h8h10-7h8h10-----------------|
D|--------------------------------------------------------------------|--------------------------------|


   PM.---------               PM.--------                 PM.---------
e|--------------------------------------------------------|----------------------------------|
B|--------------------------------------------------------|----------------------------------|
G|--------------------------------------------------------|----------------------------------|
D|--------------------------------------------------------|----------------------------------|
A|-0--------------1-0-1-0-1-0-0--------------1-0-1-0-1-0-0|--------------1-0-1-0-1-0-0-------|
D|-0--0-0-0-0-0-0-1-0-1-0-1-0-0--0-0-0-0-0-0-1-0-1-0-1-0-0|--0-0-0-0-0-0-1-0-1-0-1-0-0-------|
                                                                           Pm.----------
e|--------------------------------------------------------------------|--------------------------------|
B|--------------------------------------------------------------------|--------------------------------|
G|--------------------------------------------------------------------|--------------------------------|
D|--------------------------------------------------------------------|--------------------------------|
A|-5-5-5-5-7-7-7-7-8-8-8-8-5-5-5-5-10-10-10-10-8-8-8-8-7-7-7-7-8-8-8-8|--0--------------1-0-1-0-1-0-0--|
D|--------------------------------------------------------------------|--0--0-0-0-0-0-0-1-0-1-0-1-0-0--|
        PM.-----               PM----
e|-----------------------------|----------------------------|
B|-----------------------------|----------------------------|
G|-----------------------------|----------------------------|
D|-----------------------------|----------------------------|
A|-0--------------1-0-1-0-1-0-0|--------------1-0-1-0-1-0-0-|
D|-0--0-0-0-0-0-0-1-0-1-0-1-0-0|--0-0-0-0-0-0-1-0-1-0-1-0-0-|


e|--------------------------------|------------------------------------|
B|--------------------------------|------------------------------------|
G|--------------------------------|------------------------------------|
D|--------------------------------|------------------------------------|
A|-5-5-5-5-7-7-7-7-8-8-8-8-5-5-5-5|-10-10-10-10-8-8-8-8-7-7-7-7-8-8-8-8|
D|--------------------------------|------------------------------------|

[Chorus]

Lead 1
e|------------------------------------------|---------------------------------|
B|--------15----15/17-15--------20----22-20-|--------15----15/17-15-----------|
G|-----14----14--------------19----19-------|-----14----14--------------------|
D|--12--------------------17----------------|--12-----------------------------|
A|------------------------------------------|---------------------------------|
D|------------------------------------------|---------------------------------|

e|-------------------|-------------15-13-----------------------/20-18---------|
B|-------20-----22-20|-------13----------13--------------18-------------------|
G|----19---19--------|----14----14-----------14-------19----19----------------|
D|-17----------------|-15--------------------------20-------------------------|
A|-------------------|--------------------------------------------------------|
D|-------------------|--------------------------------------------------------|

e|--------------15-13-------|---------------/20-18----------------------------|
B|--------13----------13----|--------18---------------------------------------|
G|-----14----14----------14-|-----19----19------------------------------------|
D|--15----------------------|--20---------------------------------------------|
A|--------------------------|-------------------------------------------------|
D|--------------------------|-------------------------------------------------|


Lead 2

e|-----------------------------------------------|----------------------------------------|
B|-----------------------------------------------|----------------------------------------|
G|---------------------------------------/17--15-|-------------------------------/17--15--|
D|-------12------/17-15-----------17-------------|--------12-------------17---------------|
A|----12-----12---------------15------15---------|-----12----12-------15-----15-----------|
D|-12---------------------17---------------------|--12-------------17---------------------|

e|-----------------------------------------------|----------------------------------------------|
B|---------------17-15--------------------/22--20|-------------17-15--------------------/22-20--|
G|--------14-----------14-----------19-----------|-------14----------14------------19-----------|
D|-----15----15-----------15-----20----20--------|----15----15----------15------20----20--------|
A|--17-------------------------22----------------|-17-------------------------22----------------|
D|-----------------------------------------------|----------------------------------------------|



[Pre-verse]

Lead 1
                                                                        Pm----------------
e|--------------------------------------------------------------------|--------------------------------|
B|--------------------------------------------------------------------|--------------------------------|
G|--------------------------------------------------------------------|--------------------------------|
D|--3-3-3-3-5-5-5-5-7-7-7-7-3-3-3-3-8-8-8-8-7-7-7-7-5-5-5-5-5-3-3-3-3-|--------------------------------|
A|--------------------------------------------------------------------|--------------------0-0---------|
D|--------------------------------------------------------------------|--0-0-0-0-0-0-0-0-0-0-0---------|

Lead 2
                                                                       Pm------------------
e|--------------------------------------------------------------------|-------------------------|
B|--------------------------------------------------------------------|-------------------------|
G|--------------------------------------------------------------------|-------------------------|
D|--------------------------------------------------------------------|-------------------------|
A|-5-5-5-5-7-7-7-7-8-8-8-8-5-5-5-5-10-10-10-10-8-8-8-8-7-7-7-7-8-8-8-8|-0-0-0-0-0-0-0-0-0-0-0-0-|
D|--------------------------------------------------------------------|-0-0-0-0-0-0-0-0-0-0-0-0-|


[Verse 2] 
(Same as Verse 1)

Distortion Guitar 1
     PM.---------               PM.--------                 PM.---------
e|--------------------------------------------------------|-----------------------------|
B|--------------------------------------------------------|-----------------------------|
G|--------------------------------------------------------|-----------------------------|
D|--------------------------------------------------------|-----------------------------|
A|-0--------------1-0-1-0-1-0-0--------------1-0-1-0-1-0-0|--------------1-0-1-0-1-0-0--|
D|-0--0-0-0-0-0-0-1-0-1-0-1-0-0--0-0-0-0-0-0-1-0-1-0-1-0-0|--0-0-0-0-0-0-1-0-1-0-1-0-0--|
                                                                          Pm-----------
e|--------------------------------------------------------------------|--------------------------------|
B|--------------------------------------------------------------------|--------------------------------|
G|--------------------------------------------------------------------|--------------------------------|
D|--3-3-3-3-5-5-5-5-7-7-7-7-3-3-3-3-8-8-8-8-7-7-7-7-5-5-5-5-5-3-3-3-3-|--------------------------------|
A|--------------------------------------------------------------------|--0--------------1-0-1-0-1-0-0--|
D|--------------------------------------------------------------------|--0--0-0-0-0-0-0-1-0-1-0-1-0-0--|
        PM.-----               PM----
e|-----------------------------|----------------------------|
B|-----------------------------|----------------------------|
G|-----------------------------|----------------------------|
D|-----------------------------|----------------------------|
A|-0--------------1-0-1-0-1-0-0|--------------1-0-1-0-1-0-0-|
D|-0--0-0-0-0-0-0-1-0-1-0-1-0-0|--0-0-0-0-0-0-1-0-1-0-1-0-0-|


e|--------------------------------------------------------------------|--------------------------------|
B|--------------------------------------------------------------------|--------------------------------|
G|--------------------------------------------------------------------|----------------7----------------|
D|--3-3-3-3-5-5-5-5-7-7-7-7-3-3-3-3-8-8-8-8-7-7-7-7-5-5-5-5-5-3-3-3-3-|--7h9h10-7h9h10-----------------|
A|--------------------------------------------------------------------|--------------------------------|
D|--------------------------------------------------------------------|--------------------------------|

   PM.---------               PM.--------                 PM.---------
e|--------------------------------------------------------|-----------------------------|
B|--------------------------------------------------------|-----------------------------|
G|--------------------------------------------------------|-----------------------------|
D|--------------------------------------------------------|-----------------------------|
A|-0--------------1-0-1-0-1-0-0--------------1-0-1-0-1-0-0|--------------1-0-1-0-1-0-0--|
D|-0--0-0-0-0-0-0-1-0-1-0-1-0-0--0-0-0-0-0-0-1-0-1-0-1-0-0|--0-0-0-0-0-0-1-0-1-0-1-0-0--|
                                                                          Pm-----------
e|--------------------------------------------------------------------|--------------------------------|
B|--------------------------------------------------------------------|--------------------------------|
G|--------------------------------------------------------------------|--------------------------------|
D|--3-3-3-3-5-5-5-5-7-7-7-7-3-3-3-3-8-8-8-8-7-7-7-7-5-5-5-5-5-3-3-3-3-|--------------------------------|
A|--------------------------------------------------------------------|--0--------------1-0-1-0-1-0-0--|
D|--------------------------------------------------------------------|--0--0-0-0-0-0-0-1-0-1-0-1-0-0--|
        PM.-----               PM----
e|-----------------------------|----------------------------|
B|-----------------------------|----------------------------|
G|-----------------------------|----------------------------|
D|-----------------------------|----------------------------|
A|-0--------------1-0-1-0-1-0-0|--------------1-0-1-0-1-0-0-|
D|-0--0-0-0-0-0-0-1-0-1-0-1-0-0|--0-0-0-0-0-0-1-0-1-0-1-0-0-|


e|---------------------------------|-----------------------------------|
B|---------------------------------|-----------------------------------|
G|---------------------------------|-----------------------------------|
D|--3-3-3-3-5-5-5-5-7-7-7-7-3-3-3-3|-8-8-8-8-7-7-7-7-5-5-5-5-5-3-3-3-3-|
A|---------------------------------|-----------------------------------|
D|---------------------------------|-----------------------------------|

Distortion Guitar 2

 PM.---------               PM.--------                 PM.---------
e|--------------------------------------------------------|----------------------------------|
B|--------------------------------------------------------|----------------------------------|
G|--------------------------------------------------------|----------------------------------|
D|--------------------------------------------------------|----------------------------------|
A|-0--------------1-0-1-0-1-0-0--------------1-0-1-0-1-0-0|--------------1-0-1-0-1-0-0-------|
D|-0--0-0-0-0-0-0-1-0-1-0-1-0-0--0-0-0-0-0-0-1-0-1-0-1-0-0|--0-0-0-0-0-0-1-0-1-0-1-0-0-------|
                                                                           Pm.----------
e|--------------------------------------------------------------------|--------------------------------|
B|--------------------------------------------------------------------|--------------------------------|
G|--------------------------------------------------------------------|--------------------------------|
D|--------------------------------------------------------------------|--------------------------------|
A|-5-5-5-5-7-7-7-7-8-8-8-8-5-5-5-5-10-10-10-10-8-8-8-8-7-7-7-7-8-8-8-8|--0--------------1-0-1-0-1-0-0--|
D|--------------------------------------------------------------------|--0--0-0-0-0-0-0-1-0-1-0-1-0-0--|
        PM.-----               PM----
e|-----------------------------|----------------------------|
B|-----------------------------|----------------------------|
G|-----------------------------|----------------------------|
D|-----------------------------|----------------------------|
A|-0--------------1-0-1-0-1-0-0|--------------1-0-1-0-1-0-0-|
D|-0--0-0-0-0-0-0-1-0-1-0-1-0-0|--0-0-0-0-0-0-1-0-1-0-1-0-0-|


e|--------------------------------------------------------------------|--------------------------------|
B|--------------------------------------------------------------------|--------------------------------|
G|--------------------------------------------------------------------|--------------------------------|
D|--------------------------------------------------------------------|----------------7---------------|
A|-5-5-5-5-7-7-7-7-8-8-8-8-5-5-5-5-10-10-10-10-8-8-8-8-7-7-7-7-8-8-8-8|--7h8h10-7h8h10-----------------|
D|--------------------------------------------------------------------|--------------------------------|


   PM.---------               PM.--------                 PM.---------
e|--------------------------------------------------------|----------------------------------|
B|--------------------------------------------------------|----------------------------------|
G|--------------------------------------------------------|----------------------------------|
D|--------------------------------------------------------|----------------------------------|
A|-0--------------1-0-1-0-1-0-0--------------1-0-1-0-1-0-0|--------------1-0-1-0-1-0-0-------|
D|-0--0-0-0-0-0-0-1-0-1-0-1-0-0--0-0-0-0-0-0-1-0-1-0-1-0-0|--0-0-0-0-0-0-1-0-1-0-1-0-0-------|
                                                                           Pm.----------
e|--------------------------------------------------------------------|--------------------------------|
B|--------------------------------------------------------------------|--------------------------------|
G|--------------------------------------------------------------------|--------------------------------|
D|--------------------------------------------------------------------|--------------------------------|
A|-5-5-5-5-7-7-7-7-8-8-8-8-5-5-5-5-10-10-10-10-8-8-8-8-7-7-7-7-8-8-8-8|--0--------------1-0-1-0-1-0-0--|
D|--------------------------------------------------------------------|--0--0-0-0-0-0-0-1-0-1-0-1-0-0--|
        PM.-----               PM----
e|-----------------------------|----------------------------|
B|-----------------------------|----------------------------|
G|-----------------------------|----------------------------|
D|-----------------------------|----------------------------|
A|-0--------------1-0-1-0-1-0-0|--------------1-0-1-0-1-0-0-|
D|-0--0-0-0-0-0-0-1-0-1-0-1-0-0|--0-0-0-0-0-0-1-0-1-0-1-0-0-|


e|--------------------------------|------------------------------------|
B|--------------------------------|------------------------------------|
G|--------------------------------|------------------------------------|
D|--------------------------------|------------------------------------|
A|-5-5-5-5-7-7-7-7-8-8-8-8-5-5-5-5|-10-10-10-10-8-8-8-8-7-7-7-7-8-8-8-8|
D|--------------------------------|------------------------------------|


[Chorus]

Lead 1
e|------------------------------------------|---------------------------------|
B|--------15----15/17-15--------20----22-20-|--------15----15/17-15-----------|
G|-----14----14--------------19----19-------|-----14----14--------------------|
D|--12--------------------17----------------|--12-----------------------------|
A|------------------------------------------|---------------------------------|
D|------------------------------------------|---------------------------------|

e|-------------------|-------------15-13-----------------------/20-18---------|
B|-------20----22-20-|-------13----------13--------------18-------------------|
G|----19---19--------|----14----14-----------14-------19----19----------------|
D|-17----------------|-15--------------------------20-------------------------|
A|-------------------|--------------------------------------------------------|
D|-------------------|--------------------------------------------------------|

e|--------------15-13-------|---------------/20-18----------------------------|
B|--------13----------13----|--------18---------------------------------------|
G|-----14----14----------14-|-----19----19------------------------------------|
D|--15----------------------|--20---------------------------------------------|
A|--------------------------|-------------------------------------------------|
D|--------------------------|-------------------------------------------------|

Lead 2

e|-----------------------------------------------|----------------------------------------|
B|-----------------------------------------------|----------------------------------------|
G|---------------------------------------/17--15-|-------------------------------/17--15--|
D|-------12------/17-15-----------17-------------|--------12-------------17---------------|
A|----12-----12---------------15------15---------|-----12----12-------15-----15-----------|
D|-12---------------------17---------------------|--12-------------17---------------------|

e|-----------------------------------------------|----------------------------------------------|
B|---------------17-15--------------------/22--20|-------------17-15--------------------/22-20--|
G|--------14-----------14-----------19-----------|-------14----------14------------19-----------|
D|-----15----15-----------15-----20----20--------|----15----15----------15------20----20--------|
A|--17-------------------------22----------------|-17-------------------------22----------------|
D|-----------------------------------------------|----------------------------------------------|

[Verse 3]

Distortion Guitar Rhthym
e|-----------------------------------------------|          |----------------------------|
B|-----------------------------------------------|          |----------------------------|
G|-----------------------------------------------|          |----------------------------|
D|-----------------------------------------------| X4 then  |----------------------------|
A|-------1-1-1-1---5-5----5-5----5-5----5-5------|          |-1---1---1------------------|
D|-------1-1-1-1-------5------3------2------1----|          |-1---1---1------------------|

Distrotion Guitar Lead(w/ some effects)(Thanks mbrelin)

e|------------------------|------------------|
B|-------22---22----22-21-|----21--20----18--|
G|-19------------19-------|-19--------19-----|
D|----19------------------|------------------|
D|------------------------|------------------|
A|------------------------|------------------|
D|------------------------|------------------|

e|-----------|----------------------20b22------|
B|-------22--|-22----22-21-----21--------------|
G|-19--------|----19--------19-----------------|
D|----19-----|---------------------------------|
D|-----------|---------------------------------|
A|-----------|---------------------------------|
D|-----------|---------------------------------|

e|-----22-21-20-19-20-|-19-18-17-18-17-16-17\16/17-|
B|--------------------|----------------------------|
G|-19-----------------|----------------------------|
D|--------------------|----------------------------|
A|--------------------|----------------------------|
D|--------------------|----------------------------|

(effects off and somehting like this is played)


e|------------------|---------------8b10-|
B|------------------|-------5-6-7-8------|
G|------------------|5-6-7-8-------------|
D|-----------5-6-7-8|--------------------|
A|---5---5-7--------|--------------------|
D|------------------|--------------------|

[Acoustic parts play here]

[Solo]
                                            Let ring         slow bend
e|------------------------------|---------------------------------------------------|
B|------------------------------|---------------------------------------------------|
G|--------------------10-13-12--|-10-14--14h15p14p10--14----------------------------|
D|-/9-/12--/10---10-9-----------|----------------------------13--15---10b11---------|
A|------------------------------|---------------------------------------------------|
D|------------------------------|---------------------------------------------------|

                                                                slow bend       
e|---------------------------------|--------------------0/10-9---12b13--------|
B|-------------------11-10-9--5b5~-|--15-14-13-11b12~-------------------------|
G|-10--9--8--7b8~------------------|------------------------------------------|
D|---------------------------------|------------------------------------------|
A|---------------------------------|------------------------------------------|
D|---------------------------------|------------------------------------------|

e|--15b17--18b20--20b22--23b24-----------------------------------------------|
B|---------------------------------------------------------------------------|
G|---------------------------------------------------------------------------|
D|---------------------------------------------------------------------------|
A|---------------------------------------------------------------------------|
D|---------------------------------------------------------------------------|

[Outro] 


Rhthym

 PM.---------------          PM.-------------         PM.---------------
e|--------------------------------------------------|-------------------------|
B|--------------------------------------------------|-------------------------|
G|--------------------------------------------------|-------------------------|
D|--------------------------------------------------|-------------------------|
A|-0-0-0-0-0-0-0-0-0-0-------0-0-0-0-0-0-0-0-0-0----|----3-3-3-3-3-3-3-3-3----|
D|-0-0-0-0-0-0-0-0-0-0-------0-0-0-0-0-0-0-0-0-0----|----3-3-3-3-3-3-3-3-3----|

    PM--------------
e|-----------------------------|
B|-----------------------------|
G|-----------------------------|
D|-----------------------------|
A|--3-3-3-3-3-3-3-3-3----------|
D|--3-3-3-3-3-3-3-3-3----------|

Lead 
(The same first 2 riff patterns as chorus but the third is changed)
e|-------------------------------------------|--------------------------------|
B|--------15----15/17-15--------20----22-20--|-------15----15/17-15-----------|
G|-----14----14--------------19----19--------|----14----14--------------------|
D|--12--------------------17-----------------|-12-----------------------------|
A|-------------------------------------------|--------------------------------|
D|-------------------------------------------|--------------------------------|

e|-------------------|-------------15-13b15rb13--------|---------------/20-18--|
B|-------20----22-20-|-------13-----------------13-----|-------18--------------|
G|----19---19--------|----14----14-----------------14--|----19----19-----------|
D|-17----------------|-15------------------------------|--20-------------------|
A|-------------------|---------------------------------|-----------------------|
D|-------------------|---------------------------------|-----------------------|

e|--------------15-13h15p13--------|15-13h15p13-------------------------------|
B|-------13------------------13----|-------------13---------------------------|
G|----14----14------------------14-|----------------14------------------------|
D|-15------------------------------|-------------------15---------------------|
A|---------------------------------|----------------------16-14/0-------------|
D|---------------------------------|------------------------------------------|

e|-------------------------------------------|--------------------------------|
B|--------15----15/17-15--------20-----22-20-|-------15----15/17-15-----------|
G|-----14----14--------------19----19--------|----14----14--------------------|
D|--12--------------------17-----------------|-12-----------------------------|
A|-------------------------------------------|--------------------------------|
D|-------------------------------------------|--------------------------------|

e|-------------------|-------------15-13-----------------------/20-18---------|
B|-------20---22-20--|-------13----------13--------------18-------------------|
G|----19---19--------|----14----14-----------14-------19----19----------------|
D|-17----------------|-15--------------------------20-------------------------|
A|-------------------|--------------------------------------------------------|
D|-------------------|--------------------------------------------------------|

e|--------------15-13----------------------/20-18--|----------------------------------------------|
B|--------13----------13------------18-------------|----------------------------------------------|
G|-----14----14----------14------19----19----------|----------------------------------------------|
D|--15------------------------20-------------------|-----3-3-3-3-5-5-5-5-7-7-7-7-3-3-3-3-8-8-8-8--|
A|-------------------------------------------------|----------------------------------------------|
D|-------------------------------------------------|----------------------------------------------|

                              PM--------
e|--------------------------|----------------------------|
B|--------------------------|----------------------------|
G|--------------------------|----------------------------|
D|-7-7-7-7-5-5-5-5-5-3-3-3-3|----------------------------|
A|--------------------------|--0-0-0-0-0-0-0-0-0-0-0-----|
D|--------------------------|--0-0-0-0-0-0-0-0-0-0-0-----|

Lead 2 

e|-----------------------------------------------|----------------------------------------|
B|-----------------------------------------------|----------------------------------------|
G|---------------------------------------/17--15-|-------------------------------/17--15--|
D|-------12------/17-15-----------17-------------|--------12-------------17---------------|
A|----12-----12---------------15------15---------|-----12----12-------15-----15-----------|
D|-12---------------------17---------------------|--12-------------17---------------------|

e|----------------------------------------------------|------------------------------------------------------|
B|---------------17-15h17p15--------------------/22--20|-------------17-15h17p15---17-15h17p15---------------|
G|--------14----------------14-----------19-----------|-------14----------------14-------------14------------|
D|-----15----15----------------15-----20----20--------|----15----15-------------------------------15---------|
A|--17----------------------------22------------------|-17--------------------------------------------16-----|
D|----------------------------------------------------|--------------------------------------------------20\-|

e|-----------------------------------------------|----------------------------------------|
B|-----------------------------------------------|----------------------------------------|
G|---------------------------------------/17--15-|-------------------------------/17--15--|
D|-------12------/17-15-----------17-------------|--------12-------------17---------------|
A|----12-----12---------------15------15---------|-----12----12-------15-----15-----------|
D|-12---------------------17---------------------|--12-------------17---------------------|

e|-----------------------------------------------|----------------------------------------------|
B|---------------17-15--------------------/22--20|-------------17-15--------------------/22-20--|
G|--------14-----------14-----------19-----------|-------14----------14------------19-----------|
D|-----15----15-----------15-----20----20--------|----15----15----------15------20----20--------|
A|--17-------------------------22----------------|-17-------------------------22----------------|
D|-----------------------------------------------|----------------------------------------------|
                                                                       Pm------------------
e|--------------------------------------------------------------------|-------------------------|
B|--------------------------------------------------------------------|-------------------------|
G|--------------------------------------------------------------------|-------------------------|
D|--------------------------------------------------------------------|-------------------------|
A|-5-5-5-5-7-7-7-7-8-8-8-8-5-5-5-5-10-10-10-10-8-8-8-8-7-7-7-7-8-8-8-8|-0-0-0-0-0-0-0-0-0-0-0-0-|
D|--------------------------------------------------------------------|-0-0-0-0-0-0-0-0-0-0-0-0-|



************************************

| PM  Palm mute
| h   Hammer-on
| /   Slide up
| \   Slide Down
| b   Bend
| p   Pull-off
| ~   Vibrato

************************************



Suggest correction
comments
print report bad tab
7 comments total. Showing first comments.
+1 reply
mbrelin 10 Dec 25, 2016 11:41 AM

pretty good tab :) but i see there's a few things missing.
For instance i'm pretty confident that when this part is played there should be a second guitar playing the atb underneath it simultaniously.
e|-------------------------------|
B|-------------------------------|
G|-------------------------------|
D|-------------------------------|
D|3-5-5-7-7-3-3-8-8-7-7-5-5-5-3-3|
A|-------------------------------|
D|-------------------------------|

e|-------------------------------|
B|-------------------------------|
G|-------------------------------|
D|-------------------------------|
D|-------------------------------|
A|5-7-7-8-8-5-5-10-10-8-8-7-7-8-8|
D|-------------------------------|

I'm pretty sure the parts that are played during the chourus and in clean during the intro is also two guitars playing simoultaniously, but i'm not too sure what the second gutitar would be playing.

It also seems like the start of the solo is missing, the high pitch part with a lot of chromatic tanality. My guess it's that it's something like this while played with an octave pedal or somthink\g akin tho that:

e|------------------------------------------|
B|-------22---22----22-21-----21--20----18--|
G|-19------------19--------19--------19-----|
D|----19------------------------------------|
D|------------------------------------------|
A|------------------------------------------|
D|------------------------------------------|

e|------------------------------------20------|
B|-------22---22----22-21-----21--20----------|
G|-19------------19--------19-----------------|
D|----19--------------------------------------|
D|--------------------------------------------|
A|--------------------------------------------|
D|--------------------------------------------|

e|-------------------------------------------------|
B|----22-21-20-19-20-19-18-17-16-17-16-------------|
G|-19----------------------------------19-18-17-16-|
D|-------------------------------------------------|
D|-------------------------------------------------|
A|-------------------------------------------------|
D|-------------------------------------------------|
Note: this last part is not a 100% correct at the end, but i'm confident that the first half is somewhat correct.

And after that it should be where you start the solo.

These are just some things i noticed was missing, but overall it's a very good tab, all the parts that are included seem to be just right :)

0 reply
Static1185 10 May 24, 2017 03:22 PM

This tab is pretty well done and accurate, and I have used it to learn to play this song, but why the hell would you just not have some parts in there? The parts I am speaking of include what is in the other comment by another user and the rhythm section for the chorus. What the hell is going through your mind that you just neglect entire parts of the song? It baffles me that you just wouldn't tab those parts, whether it is out of purposeful neglect or just stupidity.

guest
You may want to rate the tab now too:
select rating
Wanna post a correction for this tab? Suggest correction