Oops, an error
Loading. Please wait.

God Damn Tab

version 1
version 1

Whole song

  • One main distortion as well as the clean intro. Us... Show more

Interactive

4,903 views 456 this week
no commentswrite comment
1 2 3 4 5
x 11
add to favorites
launch autoscroll
font size
0
reset
how to read this tab
guitar tuner
Autoscroll
slow
fast
+/-
esc
set tempo
stop
Help us to improve Ultimate-Guitar.com Take our survey!
×
Author
Difficulty
Tuning
intermediate
D A D G B E
Tuning is Drop D

[Intro]
Distortion Guitar

  PM.---------------          PM.-------------         PM.---------------
e|--------------------------------------------------|-------------------------|
B|--------------------------------------------------|-------------------------|
G|--------------------------------------------------|-------------------------|
D|--------------------------------------------------|-------------------------|
A|-0-0-0-0-0-0-0-0-0-0-0------0-0-0-0-0-0-0-0-0-0-0-|----3-3-3-3-3-3-3-3-3-3-3|
D|-0-0-0-0-0-0-0-0-0-0-0------0-0-0-0-0-0-0-0-0-0-0-|----3-3-3-3-3-3-3-3-3-3-3|

    PM--------------
e|----------------------------|
B|----------------------------|
G|----------------------------|
D|----------------------------|
A|--3-3-3-3-3-3-3-3-3-3-3-----|
D|--3-3-3-3-3-3-3-3-3-3-3-----|

(Clean Guitar( First note in the riffs are hit during the non-muted notes of distortion guitar))
                       (Let ring)                    (Let ring)              
e|--------------------------------------------------------|------------------------|
B|---------------8---10--8-------------------8---10--8----|-----------------11-----|
G|-----7-------7---7----------------7------7---7----------|------10------10----10--|
D|---------5----------------------------5-----------------|-----------8------------|
A|--------------------------------------------------------|------------------------|
D|--------------------------------------------------------|------------------------|
      (Let ring) 
e|-------------------------------------------|
B|-13--11------------------11----13----------|
G|--------------10------10----10-------------|
D|--------------------8----------------------|
A|-------------------------------------------|
D|-------------------------------------------|

[Verse 1]
     PM.---------               PM.--------                 PM.---------
e|--------------------------------------------------------|----------------------------------|
B|--------------------------------------------------------|----------------------------------|
G|--------------------------------------------------------|----------------------------------|
D|--------------------------------------------------------|----------------------------------|
A|-0--------------1-0-1-0-1-0-0--------------1-0-1-0-1-0-0|--------------1-0-1-0-1-0-0-------|
D|-0--0-0-0-0-0-0-1-0-1-0-1-0-0--0-0-0-0-0-0-1-0-1-0-1-0-0|--0-0-0-0-0-0-1-0-1-0-1-0-0-------|
                                          Pm.----------
e|------------------------------------|--------------------------------------------|
B|------------------------------------|--------------------------------------------|
G|------------------------------------|--------------------------------------------|
D|--3-3-5-5-7-7-3-3-8-8-7-7-5-5-5-3-3-|--------------------------------------------|
A|------------------------------------|--0--------------1-0-1-0-1-0-0--------------|
D|------------------------------------|--0--0-0-0-0-0-0-1-0-1-0-1-0-0--------------|
    PM.-----               PM----
e|---------------------------------------------------------|----------------------------|
B|---------------------------------------------------------|----------------------------|
G|---------------------------------------------------------|----------------------------|
D|---------------------------------------------------------|----------------------------|
A|-0--------------1-0-1-0-1-0-0--------------1-0-1-0-1-0-0-|--3-3-5-5-7-7-3-3-8-8-7-7-5-|
D|-0--0-0-0-0-0-0-1-0-1-0-1-0-0--0-0-0-0-0-0-1-0-1-0-1-0-0-|----------------------------|

e|------------------------------|---------------------|
B|------------------------------|---------------------|
G|------------------------------|--------------------7|
D|-5-5-5-3-3-3-3-5-5-7-7-3-3-8-8|-7-7-7h9h10-7h9h10---|  (Moved Down To Look Better)
A|------------------------------|---------------------|
D|------------------------------|---------------------|

   PM.---------               PM.--------                 PM.---------
e|--------------------------------------------------------|----------------------------------|
B|--------------------------------------------------------|----------------------------------|
G|--------------------------------------------------------|----------------------------------|
D|--------------------------------------------------------|----------------------------------|
A|-0--------------1-0-1-0-1-0-0--------------1-0-1-0-1-0-0|--------------1-0-1-0-1-0-0-------|
D|-0--0-0-0-0-0-0-1-0-1-0-1-0-0--0-0-0-0-0-0-1-0-1-0-1-0-0|--0-0-0-0-0-0-1-0-1-0-1-0-0-------|
                                          Pm.----------
e|------------------------------------|------------------------------------------------------|
B|------------------------------------|------------------------------------------------------|
G|------------------------------------|------------------------------------------------------|
D|--3-3-5-5-7-7-3-3-8-8-7-7-5-5-5-3-3-|------------------------------------------------------|
A|------------------------------------|--0--------------1-0-1-0-1-0-0------------------------|
D|------------------------------------|--0--0-0-0-0-0-0-1-0-1-0-1-0-0------------------------|
    PM.-----               PM----
e|---------------------------------------------------------|----------------------------|
B|---------------------------------------------------------|----------------------------|
G|---------------------------------------------------------|----------------------------|
D|---------------------------------------------------------|----------------------------|
A|-0--------------1-0-1-0-1-0-0--------------1-0-1-0-1-0-0-|--3-3-5-5-7-7-3-3-8-8-7-7-5-|
D|-0--0-0-0-0-0-0-1-0-1-0-1-0-0--0-0-0-0-0-0-1-0-1-0-1-0-0-|----------------------------|

e|--------------------------------------------------------------------------------------|
B|--------------------------------------------------------------------------------------|
G|--------------------------------------------------------------------------------------|
D|-5-5-3-3------------------------------------------------------------------------------|
A|--------------------------------------------------------------------------------------|
D|--------------------------------------------------------------------------------------|

[Chorus]
e|------------------------------------------|---------------------------------|
B|--------15----15/17-15--------20----22-20-|--------15----15/17-15-----------|
G|-----14----14--------------19----19-------|-----14----14--------------------|
D|--12--------------------17----------------|--12-----------------------------|
A|------------------------------------------|---------------------------------|
D|------------------------------------------|---------------------------------|

e|-------------------|-------------15-13-----------------------/20-18---------|
B|-------20-----22-20|-------13----------13--------------18-------------------|
G|----19---19--------|----14----14-----------14-------19----19----------------|
D|-17----------------|-15--------------------------20-------------------------|
A|-------------------|--------------------------------------------------------|
D|-------------------|--------------------------------------------------------|

e|--------------15-13-------|---------------/20-18----------------------------|
B|--------13----------13----|--------18---------------------------------------|
G|-----14----14----------14-|-----19----19------------------------------------|
D|--15----------------------|--20---------------------------------------------|
A|--------------------------|-------------------------------------------------|
D|--------------------------|-------------------------------------------------|

[Pre-verse]
                                  PM----------------
e|-------------------------------|--------------------------------------------|
B|-------------------------------|--------------------------------------------|
G|-------------------------------|--------------------------------------------|
D|-------------------------------|--------------------------------------------|
D|3-5-5-7-7-3-3-8-8-7-7-5-5-5-3-3|--------------------------------------------|
A|-------------------------------|---------------------0-0--------------------|
D|-------------------------------|---0-0-0-0-0-0-0-0-0-0-0--------------------|

[Verse 2] 
(Same as Verse 1)
     PM.---------               PM.--------                 PM.---------
e|--------------------------------------------------------|-----------------------------|
B|--------------------------------------------------------|-----------------------------|
G|--------------------------------------------------------|-----------------------------|
D|--------------------------------------------------------|-----------------------------|
A|-0--------------1-0-1-0-1-0-0--------------1-0-1-0-1-0-0|--------------1-0-1-0-1-0-0--|
D|-0--0-0-0-0-0-0-1-0-1-0-1-0-0--0-0-0-0-0-0-1-0-1-0-1-0-0|--0-0-0-0-0-0-1-0-1-0-1-0-0--|
                                          Pm.----------
e|------------------------------------|---------------------------------|
B|------------------------------------|---------------------------------|
G|------------------------------------|---------------------------------|
D|--3-3-5-5-7-7-3-3-8-8-7-7-5-5-5-3-3-|---------------------------------|
A|------------------------------------|--0--------------1-0-1-0-1-0-0---|
D|------------------------------------|--0--0-0-0-0-0-0-1-0-1-0-1-0-0---|
    PM.-----               PM----
e|---------------------------------------------------------|----------------------------|
B|---------------------------------------------------------|----------------------------|
G|---------------------------------------------------------|----------------------------|
D|---------------------------------------------------------|----------------------------|
A|-0--------------1-0-1-0-1-0-0--------------1-0-1-0-1-0-0-|--3-3-5-5-7-7-3-3-8-8-7-7-5-|
D|-0--0-0-0-0-0-0-1-0-1-0-1-0-0--0-0-0-0-0-0-1-0-1-0-1-0-0-|----------------------------|

e|------------------------------|--------------|
B|------------------------------|--------------|
G|------------------------------|-------------7|
D|-5-5-5-3-3-3-3-5-5-7-7-3-3-8-8|-7-7-7h9h10---|  (Moved Down To Look Better)
A|------------------------------|--------------|
D|------------------------------|--------------|

   PM.---------               PM.--------                 PM.---------
e|--------------------------------------------------------|-----------------------------|
B|--------------------------------------------------------|-----------------------------|
G|--------------------------------------------------------|-----------------------------|
D|--------------------------------------------------------|-----------------------------|
A|-0--------------1-0-1-0-1-0-0--------------1-0-1-0-1-0-0|--------------1-0-1-0-1-0-0--|
D|-0--0-0-0-0-0-0-1-0-1-0-1-0-0--0-0-0-0-0-0-1-0-1-0-1-0-0|--0-0-0-0-0-0-1-0-1-0-1-0-0--|
                                          Pm.----------
e|------------------------------------|-------------------------------|
B|------------------------------------|-------------------------------|
G|------------------------------------|-------------------------------|
D|--3-3-5-5-7-7-3-3-8-8-7-7-5-5-5-3-3-|-------------------------------|
A|------------------------------------|--0--------------1-0-1-0-1-0-0-|
D|------------------------------------|--0--0-0-0-0-0-0-1-0-1-0-1-0-0-|
    PM.-----               PM----
e|---------------------------------------------------------|----------------------------|
B|---------------------------------------------------------|----------------------------|
G|---------------------------------------------------------|----------------------------|
D|---------------------------------------------------------|----------------------------|
A|-0--------------1-0-1-0-1-0-0--------------1-0-1-0-1-0-0-|--3-3-5-5-7-7-3-3-8-8-7-7-5-|
D|-0--0-0-0-0-0-0-1-0-1-0-1-0-0--0-0-0-0-0-0-1-0-1-0-1-0-0-|----------------------------|

e|--------------------------------------------------------------------------------------|
B|--------------------------------------------------------------------------------------|
G|--------------------------------------------------------------------------------------|
D|-5-5-3-3------------------------------------------------------------------------------|
A|--------------------------------------------------------------------------------------|
D|--------------------------------------------------------------------------------------|

[Chorus]
e|------------------------------------------|---------------------------------|
B|--------15----15/17-15--------20----22-20-|--------15----15/17-15-----------|
G|-----14----14--------------19----19-------|-----14----14--------------------|
D|--12--------------------17----------------|--12-----------------------------|
A|------------------------------------------|---------------------------------|
D|------------------------------------------|---------------------------------|

e|-------------------|-------------15-13-----------------------/20-18---------|
B|-------20----22-20-|-------13----------13--------------18-------------------|
G|----19---19--------|----14----14-----------14-------19----19----------------|
D|-17----------------|-15--------------------------20-------------------------|
A|-------------------|--------------------------------------------------------|
D|-------------------|--------------------------------------------------------|

e|--------------15-13-------|---------------/20-18----------------------------|
B|--------13----------13----|--------18---------------------------------------|
G|-----14----14----------14-|-----19----19------------------------------------|
D|--15----------------------|--20---------------------------------------------|
A|--------------------------|-------------------------------------------------|
D|--------------------------|-------------------------------------------------|

[Verse 3]
e|-----------------------------------------------|          |----------------------------|
B|-----------------------------------------------|          |----------------------------|
G|-----------------------------------------------|          |----------------------------|
D|-----------------------------------------------| X4 then  |----------------------------|
A|-------1-1-1-1---5-5----5-5----5-5----5-5------|          |-1---1---1------------------|
D|-------1-1-1-1-------5------3------2------1----|          |-1---1---1------------------|

(On the fourth time this is played a riff is played, its something like this)

e|------------------|---------------8b10-|
B|------------------|-------5-6-7-8------|
G|------------------|5-6-7-8-------------|
D|-----------5-6-7-8|--------------------|
A|---5---5-7--------|--------------------|
D|------------------|--------------------|

[Solo]
                                            Let ring         slow bend
e|------------------------|---------------------------------------------------|
B|------------------------|---------------------------------------------------|
G|--------------10-13-12--|-10-14--14h15p14p10--14----------------------------|
D|----10---10-9-----------|----------------------------13--15---10b11---------|
A|------------------------|---------------------------------------------------|
D|------------------------|---------------------------------------------------|
(Starts at)Cursing at the piper...
                                                                slow bend       
e|---------------------------------|--------------------0/10-9---12b13--------|
B|-------------------11-10-9--5b5~-|--15-14-13-11b12~-------------------------|
G|-10--9--8--7b8~------------------|------------------------------------------|
D|---------------------------------|------------------------------------------|
A|---------------------------------|------------------------------------------|
D|---------------------------------|------------------------------------------|

e|--15b17--18b20--20b22--23b24-----------------------------------------------|
B|---------------------------------------------------------------------------|
G|---------------------------------------------------------------------------|
D|---------------------------------------------------------------------------|
A|---------------------------------------------------------------------------|
D|---------------------------------------------------------------------------|

[Outro]  
(The same first 2 riff patterns as chorus but the third is changed)
e|-------------------------------------------|--------------------------------|
B|--------15----15/17-15--------20----22-20--|-------15----15/17-15-----------|
G|-----14----14--------------19----19--------|----14----14--------------------|
D|--12--------------------17-----------------|-12-----------------------------|
A|-------------------------------------------|--------------------------------|
D|-------------------------------------------|--------------------------------|

e|-------------------|-------------15-13b15rb13--------|---------------/20-18--|
B|-------20----22-20-|-------13-----------------13-----|-------18--------------|
G|----19---19--------|----14----14-----------------14--|----19----19-----------|
D|-17----------------|-15------------------------------|--20-------------------|
A|-------------------|---------------------------------|-----------------------|
D|-------------------|---------------------------------|-----------------------|

e|--------------15-13h15p13--------|15-13h15p13-------------------------------|
B|-------13------------------13----|-------------13---------------------------|
G|----14----14------------------14-|----------------14------------------------|
D|-15------------------------------|-------------------15---------------------|
A|---------------------------------|----------------------16-14/0-------------|
D|---------------------------------|------------------------------------------|

e|-------------------------------------------|--------------------------------|
B|--------15----15/17-15--------20-----22-20-|-------15----15/17-15-----------|
G|-----14----14--------------19----19--------|----14----14--------------------|
D|--12--------------------17-----------------|-12-----------------------------|
A|-------------------------------------------|--------------------------------|
D|-------------------------------------------|--------------------------------|

e|-------------------|-------------15-13-----------------------/20-18---------|
B|-------20---22-20--|-------13----------13--------------18-------------------|
G|----19---19--------|----14----14-----------14-------19----19----------------|
D|-17----------------|-15--------------------------20-------------------------|
A|-------------------|--------------------------------------------------------|
D|-------------------|--------------------------------------------------------|

e|--------------15-13----------------------/20-18--|--------------------------|
B|--------13----------13------------18-------------|--------------------------|
G|-----14----14----------14------19----19----------|--------------------------|
D|--15------------------------20-------------------|-----3-3-5-5-7-7-3-3-8-8--|
A|-------------------------------------------------|--------------------------|
D|-------------------------------------------------|--------------------------|

                 PM--------
e|--------------|----------------------------|
B|--------------|----------------------------|
G|--------------|----------------------------|
D|-7-7-5-5-5-3-3|----------------------------|
A|--------------|--------------------0-0-----|
D|--------------|--0-0-0-0-0-0-0-0-0-0-0-----|


************************************

| PM  Palm mute
| h   Hammer-on
| /   Slide up
| b   Bend
| p   Pull-off
| ~   Vibrato

************************************
Suggest correction
comments
print report bad tab
guest
You may want to rate the tab now too:
select rating
Wanna post a correction for this tab? Suggest correction