Oops, an error
Loading. Please wait.

God Hates Us bass

version 1
version 1

Whole song

18,444 views 9 this week
2 commentsread comments
1 2 3 4 5
x 8
add to favorites
×
Save as Personal and add changes to this tab that will be seen only by you. Learn more ›
×
You can save this tab as Personal to edit and correct it or add notes. All changes will be seen only by you. Learn more »
launch autoscroll
font size
0
reset
guitar tuner
backing track
0:00
0:00
edit
Autoscroll
slow
fast
+/-
esc
set tempo
stop
Artist - Avenged Sevenfold
Album - Nightmare
Track - God Hates Us
Tuning - Dropped D (DADG)

NB - (n) notes inside parentheses are optional 
   - where two 'o' are used, repeat between

Intro
G|--------------------------------|--------------------------------|
D|o-------------------------------|-------------------------------o|
A|o-------------------------------|-------------------------------o|
D|--------------------------------|--------------------------------| x8

G|--------------------------------|--------------------------------|
D|o-------------------------------|-------------------------------o|
A|o5------------------------------|-------------------------------o|
D|--------------------------------|--------------------------------|

G|--------------------------------|--------------------------------|
D|o-------------------------------|-------------------------------o|
A|o-------------------------------|-------------------------------o|
D|--------------------------------|--------------------------------|

G|--------------------------------|
D|----------------1----1----1-----|
A|--------------------------------|
D|-1----1----1--------------------| 

G|--------------------------------|
D|o------------------------------o|
A|o-----5------------5---3---6---o|
D|-------0-0-0-0-0-0--(0)-(0)-(0)-| x3

G|--------------------------------|
D|----------------1----1----1-----|
A|--------------------------------|
D|-1----1----1--------------------|

G|--------------------------------|
D|o------------------------------o|
A|o-----5------------5---3---6---o|
D|-------0-0-0-0-0-0--(0)-(0)-(0)-| x3

G|--------------------------------|
D|----------------1----1----1-----|
A|--------------------------------|
D|-1----1----1--------------------|

Pre Verse
G|--------------------------------|--------------------------------|
D|o-----------------------1-------|--------3---3---3---1---0-------|
A|o-------5---5---5---3-----------|--------------------------------|
D|-0------------------------------|-0--------------------------1---|

G|--------------------------------|--------------------------------|
D|------------------------1-------|-------------------------------o|
A|--------5---5---5---3-----------|-------------------------------o|
D|-0------------------------------|-1-------1-------1-------1------| 

Verse 1
G|--------------------------------|--------------------------------|
D|--------------------------------|--------------------------------|
A|--------------------------------|--------------------------------|
D|-0------------------------------|--------------------------------|

G|--------------------------------|--------------------------------|
D|--------------------------------|--------------------------------|
A|--------------------------------|----------------------------2---|
D|--------------------------------|--------------------3---6-------|

G|--------------------------------|--------------------------------|
D|--------------------------------|--------------------------------|
A|--------------------------------|--------------------------------|
D|-0-0-0-0---0-0-0-0---0-0-0---00-|-0000---0-0-0-0-00----0-0-0-0---|

G|--------------------------------|--------------------------------|
D|--------------------------------|--------------------------------|
A|--------------------------------|----------------------------2---|
D|-0-0-0-0---0-0-0-0---0-0-0---00-|-0000---0-0-0-0-00--3---6-------| 

Chorus
G|--------------------------------|--------------------------------|
D|o-------------------------------|-------------------------------o|
A|o------------------2------------|-------------2-----------------o|
D|-3-----6-----3----------6-------|-3---6---3-----------6----------| x4

Pre Verse
G|--------------------------------|--------------------------------|
D|o-----------------------1-------|--------3---3---3---1---0-------|
A|o-------5---5---5---3-----------|--------------------------------|
D|-0------------------------------|-0--------------------------1---|

G|--------------------------------|--------------------------------|
D|------------------------1-------|-------------------------------o|
A|--------5---5---5---3-----------|-------------------------------o|
D|-0------------------------------|-1-------1-------1-------1------|

Verse 2
G|--------------------------------|--------------------------------|
D|--------------------------------|--------------------------------|
A|-5------------------------------|--------------------------------|
D|--------------------------------|--------------------------------|

G|--------------------------------|--------------------------------|
D|--------------------------------|--------------------------------|
A|--------------------------------|--------------------------------|
D|--------------------------------|--------------------------------|

G|--------------------------------|
D|----------------1----1----1-----|
A|--------------------------------|
D|-1----1----1--------------------|

G|--------------------------------|
D|o------------------------------o|
A|o-----5------------5---3---6---o|
D|-------0-0-0-0-0-0--(0)-(0)-(0)-| x8

G|--------------------------------|--------------------------------|
D|--------------------------------|--------------------------------|
A|--------------------------------|--------------------------------|
D|-0------------------------------|--------------------------------|

G|--------------------------------|--------------------------------|
D|--------------------------------|--------------------------------|
A|--------------------------------|----------------------------2---|
D|--------------------------------|--------------------3---6-------|

G|--------------------------------|--------------------------------|
D|--------------------------------|--------------------------------|
A|--------------------------------|--------------------------------|
D|-0-0-0-0---0-0-0-0---0-0-0---00-|-0000---0-0-0-0-00----0-0-0-0---|

G|--------------------------------|--------------------------------|
D|--------------------------------|--------------------------------|
A|--------------------------------|----------------------------2---|
D|-0-0-0-0---0-0-0-0---0-0-0---00-|-0000---0-0-0-0-00--3---6-------|

Chorus
G|--------------------------------|--------------------------------|
D|o-------------------------------|-------------------------------o|
A|o------------------2------------|-------------2-----------------o|
D|-3-----6-----3----------6-------|-3---6---3-----------6----------| x4

Pre Verse
G|--------------------------------|--------------------------------|
D|o-----------------------1-------|--------3---3---3---1---0-------|
A|o-------5---5---5---3-----------|--------------------------------|
D|-0------------------------------|-0--------------------------1---|

G|--------------------------------|--------------------------------|
D|------------------------1-------|-------------------------------o|
A|--------5---5---5---3-----------|-------------------------------o|
D|-0------------------------------|-1-------1-------1-------1------|

Breakdown
G|--------------------------------|--------------------------------|
D|o-------------------------------|--------------------------------|
A|o-------------------------------|--------------------------------|
D|-0-0-0-0-0-------0-0-0-0--------|-0-0-0-0-0-------0-0-0-0--------|

G|--------------------------------|--------------------------------|
D|--------------------------------|-------------------------------o|
A|--------------------------------|-------------------------------o|
D|-0---0---0-------0-0-0-0--------|-0-0-0-0-0-------0-0-0-0--------|

G|--------------------------------|
D|--------------------------------|
A|--------------------------------|
D|--------------------------------|

Solo
G|--------------------------------|--------------------------------|
D|o-------------------------------|-------------------------------o|
A|o------------------2------------|-------------2-----------------o|
D|-3-----6-----3----------6-------|-3---6---3-----------6----------| x8

Post Solo/Bass Outro
G|--------------------------------|--------------------------------|
D|o-----------------------1-------|--------3---3---3---1---0-------|
A|o-------5---5---5---3-----------|--------------------------------|
D|-0------------------------------|-0--------------------------1---|

G|--------------------------------|--------------------------------|
D|------------------------1-------|-------------------------------o|
A|--------5---5---5---3-----------|-------------------------------o|
D|-0------------------------------|-1-------1-------1-------1------| x4

G|--------------------------------|
D|--------------------------------|
A|--------------------------------|
D|-0------------------------------|       

            
            
Suggest correction
Creating personal tab
Creating personal tab
You can edit any tab online and save it as your Personal.

You can edit, replace or remove any tab part or add personal notes – all changes will be seen only by you.

Personal tabs can be accessed anytime from any device, even offline.
Learn more »
comments
print report bad tab
2 comments total.
0 reply
l3ell1996 10 Aug 04, 2010 10:31 AM

It all sounds pretty good, except for the Pre-Verse. it sounds alright, but I just know that it's not correct from watching Johnny live. I think it's fairly close, though.

0 reply
criderkidbass 10 Sep 16, 2014 09:18 AM

Pre Verse
G|--------------------------------|--------------------------------|
D|o-------------------------------|--------------------------------|
A|o-------5---5---3---6-----------|--------8---8---8---6---5-------|
D|-0------------------------------|-0--------------------------1---|

G|--------------------------------|--------------------------------|
D|--------------------------------|-------------------------------o|
A|--------5---5---3---6-----------|-6-------6-------6-------------o|
D|-0------------------------------|-------------------------1------|


I believe this is the appropriate Pre Verse
The 3 6's on the last part of the Pre Verse could also possibly be 5's

guest
You may want to rate the tab now too:
select rating
Wanna post a correction for this tab? Suggest correction