Oops, an error
Loading. Please wait.

God Hates Us tab

version 1
version 1

Whole song

176,993 views 204 this week
6 commentsread comments
1 2 3 4 5
x 27
add to favorites
×
Save as Personal and add changes to this tab that will be seen only by you. Learn more ›
×
You can save this tab as Personal to edit and correct it or add notes. All changes will be seen only by you. Learn more »
launch autoscroll
font size
0
reset
how to read this tab
guitar tuner
backing track
0:00
0:00
edit
Autoscroll
slow
fast
+/-
esc
set tempo
stop
-----------------------------------------------------------------------------
                             God hates us – Avenged Sevenfold
-----------------------------------------------------------------------------
Tabbed by:Alex Yeung
Email:alexyeung330@hotmail.com

Tuning:Dropped D

e|--5----5----3---3-----1---1----0----0----------------------|
B|-- 6----6----5---5-----3---3----3----3---------------------|
G|----7----7----5---5-----2---2----3----3-0------------------|(x4)
D|------0---0----0---0-----0---0-----0-----------------------|
A|-----------------------------------------------------------|
D|-----------------------------------------------------------|

e|---5---8---3--8----3--5------1-3-1-------------|
B|---6---10--5--10---5--6--8-6-3-5-3--3----------|
G|------------------------------------3----------|
D|-----------------------------------------------|(x2)
A|-----------------------------------------------|
D|-----------------------------------------------|

e|--------------------9--12--------|
B|-2---2-3-5-8-6-5-6--10-10--------|
G|-3-3-----------------------------|
D|---------------------------------|
A|---------------------------------|
D|---------------------------------|

e|-------------------------------------------------|
B|-------------------------------------------------|
G|-7------------7-------5-----8-7------------------|
D|-7------------7-------5-----8-7------------------|(x6)
A|-5------------5--0-0--3-0-0-6-5------------------|
D|--0-0-0-0-0-0----0-0----0-0----------------------|

e|-------------------------------------|
B|-------------------------------------|
G|-------------------------------------|
D|-7----5-----8--------8-8-------------|
A|-5----3-00--6--1-1-1-6-6-------------|
D|--0-0---00-----1-1-1-----------------|

e|-------------------------------------|
B|-------------------------------------|
G|---7-7-5--8-----10-10-10--8-7--------|
D|-------------------------------------|
A|-0-5-5-3--6--0--8--8--8---6-5--------|
D|-0-----------0-----------------------|

e|-------------------------------------|
B|-------------------------------------|
G|---7-7-5-8---------------------------|
D|-------------------------------------|
A|-0-5-5-3-6----0-0----1-1-1--1-0------|
D|-0------------0-0----1-1-1--1-0------|

e|--------------------------------------------------------------------------|
B|--------------------------------------------------------------------------|
G|--------------------------------------------------------------------------|
D|--------------------------------------------------------------------------|
A|--------------------------------------------------------------------10-9--|
D|--0-0-12-0-10-0-13-0-12-0-0-10-0-10-12--0-0-12-0-10-0-0-13-0-0-12-0---0---|


e|--------------------------------------------------------------------------|
B|--------------------------------------------------------------------------|
G|--------------------------------------------------------------------------|
D|--------------------------------------------------------------------------|
A|--------------------------------------------------------3-6-9-------------|
D|--0-0-12-0-10-0-13-0-12-0-0-10-0-10-12--0-0-12-0-10-0-0-3-6-9-------------|

e|----------------------------------|
B|----------------------------------|
G|----------------------------------|
D|----------------------------------|
A|-0--6--3--9--6--3-6-3--9--6-------|
D|-0--6--3--9--6--3-6-3--9--6-------|


e|-------------------------------------|
B|-------------------------------------|
G|---7-7-5--8-----10-10-10--8-7--------|
D|-------------------------------------|
A|-0-5-5-3--6--0--8--8--8---6-5--------|
D|-0-----------0-----------------------|

e|-------------------------------------|
B|-------------------------------------|
G|---7-7-5-8---------------------------|
D|-------------------------------------|
A|-0-5-5-3-6----0-0----1-1-1--1-0------|
D|-0------------0-0----1-1-1--1-0------|

e|-------------------------------------|
B|-------------------------------------|
G|---7-7-5--8-----10-10-10--8-7--------|
D|-------------------------------------|
A|-0-5-5-3--6--0--8--8--8---6-5--------|
D|-0-----------0-----------------------|

e|--------------------------------------|
B|--------------------------------------|
G|---7-7-5-8----------------------------|
D|--------------------------------------|
A|-0-5-5-3-6----0-0----1-1-1--1-0-------|
D|-0------------0-0----1-1-1--1-0-------|

e|--------------------------------------------------------------------------|
B|--------------------------------------------------------------------------|
G|--------------------------------------------------------------------------|
D|--------------------------------------------------------------------------|
A|--------------------------------------------------------------------10-9--|
D|--0-0-12-0-10-0-13-0-12-0-0-10-0-10-12--0-0-12-0-10-0-0-13-0-0-12-0---0---|


e|--------------------------------------------------------------------------|
B|--------------------------------------------------------------------------|
G|--------------------------------------------------------------------------|
D|--------------------------------------------------------------------------|
A|--------------------------------------------------------3-6-9-------------|
D|--0-0-12-0-10-0-13-0-12-0-0-10-0-10-12--0-0-12-0-10-0-0-3-6-9-------------|

e|--------------------------------------------------------------------------|
B|--------------------------------------------------------------------------|
G|--------------------------------------------------------------------------|
D|--------------------------------------------------------------------------|
A|--------------------------------------------------------------------10-9--|
D|--0-0-12-0-10-0-13-0-12-0-0-10-0-10-12--0-0-12-0-10-0-0-13-0-0-12-0---0---|


e|--------------------------------------------------------------------------|
B|--------------------------------------------------------------------------|
G|--------------------------------------------------------------------------|
D|--------------------------------------------------------------------------|
A|--------------------------------------------------------3--6--9-----------|
D|--0-0-12-0-10-0-13-0-12-0-0-10-0-10-12--0-0-12-0-10-0-0-3-6-9-------------|


[Solo]

e|-10-13-10----16---10-13--16----------|
B|-13-16-13----19---13-16--19----------|
G|-------------------------------------|(x2)
D|-------------------------------------|
A|-------------------------------------|
D|-------------------------------------|

e|-10--13----10---13------16---13------|
B|---9--12-----9---12-------15--12-----|
G|-------------------------------------|          
D|-------------------------------------|
A|-------------------------------------|
D|-------------------------------------|

e|-13-10----16-13-----13-10-----16-13-----|
B|------12--------15--------12--------15--|
G|----------------------------------------|          
D|----------------------------------------|
A|----------------------------------------|
D|----------------------------------------|

e|-13-10------10-7---------------------|
B|------12---------9-------------------|
G|---------13--------10----------------|          
D|-------------------------------------|
A|-------------------------------------|
D|-------------------------------------|

e|-------------------------------------|
B|-------------------------------------|
G|-----7 divebomb----------------------|          
D|-------------------------------------|
A|-------------------------------------|
D|-------------------------------------|


e|-------------------------------------|
B|----------------10-13^15-------------|
G|--------10-12-13---------------------|          
D|--11-12------------------------------|
A|-------------------------------------|
D|-------------------------------------|


e|-------------------------------------|
B|-------------------------------------|
G|-----7 divebomb----------------------|          
D|-------------------------------------|
A|-------------------------------------|
D|-------------------------------------|

i cant figure out this part of the SOLO, so someone will have to do it XD

e|------------------------------------|
B|------------18-15-18----------------|
G|-7-10-14-13-------------------------|tremolo picking
D|------------------------------------|
A|------------------------------------| 
D|------------------------------------|

e|---------------------------17-20^22-|
B|--------------12-13-15--20----------|
G|-----13-14-15-----------------------|          
D|------------------------------------|
A|------------------------------------|
D|------------------------------------|



************************************

| ^ bend up

************************************
Suggest correction
Creating personal tab
Creating personal tab
You can edit any tab online and save it as your Personal.

You can edit, replace or remove any tab part or add personal notes – all changes will be seen only by you.

Personal tabs can be accessed anytime from any device, even offline.
Learn more »
comments
print report bad tab
6 comments total. Showing first comments.
+1 reply
sivi123 50 Jul 27, 2010 08:45 AM

In the chorus part, it's :
e|-----------------------------------|
B|-----------------------------------|
G|-----------------------------------|
D|-----------------------------------|
A|-3--6--3--9--6--3--6--3--9--6------|
D|-3--6--3--9--6--3--6--3--9--6------|
(ALL SLIDES)

0 reply
PuRs3l 26 Jul 28, 2010 12:33 PM

I think you should play it like this because it's a little bit easier because you don't have to stretch your fingers as far and you missed a note.

INSTEAD OF THIS:
e|-------------------------------------------|
B|10-13-8-13-8-10-8--------------------------|
G|------------------10-7-9-7-----------------|
D|---------------------------8---------------|
A|-------------------------------------------|
D|-------------------------------------------|
[/tab}

IT SHOULD BE PLAYED LIKE THIS
e|---8---8---------------------------------|
B|10---8---8-10-8--------------------------|
G|------------------10-7-9-7---------------|
D|---------------------------8-7-----------|
A|-----------------------------------------|
D|-----------------------------------------|

0 reply
Reverend_Gates 10 Jul 29, 2010 05:38 PM

I hear this for the chorus:
e|-------------------------------------------|
B|-------------------------------------------|
G|-------------------------------------------|
D|-------------------------------------------|
A|-0--/6--\3--/9--\6--0--/6--\3--/9--\6------|
D|-0--/6--\3--/9--\6--0--/6--\3--/9--\6------|

guest
You may want to rate the tab now too:
select rating
Wanna post a correction for this tab? Suggest correction