Oops, an error
Loading. Please wait.

God Hates Us bass

version 3
version 3

Whole song

4,461 views 3 this week
1 commentread comment
1 2 3 4 5
x 10
add to favorites
×
Save as Personal and add changes to this tab that will be seen only by you. Learn more ›
×
You can save this tab as Personal to edit and correct it or add notes. All changes will be seen only by you. Learn more »
launch autoscroll
font size
0
reset
guitar tuner
backing track
0:00
0:00
edit
Autoscroll
slow
fast
+/-
esc
set tempo
stop
-------------------------------------------------------------------------------
			     God Hates Us - Avenged Sevenfold
-------------------------------------------------------------------------------

Tabbed By : MusicMan24
e-mail: a7t1r1@hotmail.com

This is just a different way to play it. Please rate and comment.



Tuning: Drop D


Intro - 0:44

G|----------------------|
D|----------------------|
A|----------------------|
D|0~--------0~--------0-|


Pre-Verse

G|-----------|
D|-----------|
A|-----6-6-6-| 0:56
D|1-1-1------|

G|---------------------------------------------------------------|
D|---------------------------------------------------------------|
A|5--------5--3--6--5--------5--3--6--5--------5--3--6-----6-6-6-| x2
D|-00000000----------00000000----------00000000-------1-1-1------|


Verse 1

G|-----------------------------------------|
D|-----------------------------------------|
A|---55-3-6----888-6-5----55-3-6-----------|
D|0---------0----------0---------1-1-1-1-0-| 2nd time let the open D ring

G|---------|
D|---------|
A|---------| 1:31
D|3--6--9--|

G|---------|
D|---------|
A|---------| 1:38
D|3--6--9--|


Chorus x4

G|---------------------------|
D|---------------------------|
A|---------------------------|
D|3--6--3--/9--6--3-6-3-/9-6-|


Verse 2

G|-----------------------------------------|
D|-----------------------------------------|
A|---55-3-6----888-6-5----55-3-6-----------|
D|0---------0----------0---------1-1-1-1-0-| 2nd time let the open D ring

G|-----------|
D|-----------|
A|-----6-6-6-| 2:11
D|1-1-1------|

G|------------------|
D|------------------|
A|5--------5--3--6--| x7
D|-00000000---------|

G|---------------------|
D|---------------------|
A|5--------5--3--6-----| 8th time
D|-00000000--------0~--|

G|---------|
D|---------|
A|---------| 2:33
D|3--6--9--|

G|---------|
D|---------|
A|---------| 2:40
D|3--6--9--|


Chorus x4


Pre-Bridge

G|-----------------------------------------|
D|-----------------------------------------|
A|---55-3-6----888-6-5----55-3-6-----------|
D|0---------0----------0---------1-1-1-1-0-| 2nd time go right into bridge


Bridge

G|---------------------------------------|
D|---------------------------------------|
A|---------------------------------------|
D|0000----000----0000----000----0--0--0--|

G|-------------------------------------------------------------|
D|-------------------------------------------------------------|
A|-------------------------------------------------------------|
D|000----0000----000----0000----000----0000----000----0--0--0--|

G|-------------------|
D|-------------------|
A|-------------------|
D|000----0000----000-|


Guitar Solo - Play chorus x8 I believe


Outro x4

G|-----------------------------------------|
D|-----------------------------------------|
A|---55-3-6----888-6-5----55-3-6-----------|
D|0---------0----------0---------1-1-1-1-0-| Last time let it ring



| /  slide up
| \  slide down
| h  hammer-on
| p  pull-off
| ~  vibrato
| +  harmonic
| x  Mute note
===============================================================================

            
            
Suggest correction
Creating personal tab
Creating personal tab
You can edit any tab online and save it as your Personal.

You can edit, replace or remove any tab part or add personal notes – all changes will be seen only by you.

Personal tabs can be accessed anytime from any device, even offline.
Learn more »
comments
print report bad tab
1 comment total.
+3 reply
Kaseke 398 Sep 28, 2012 04:01 AM

Just one thing that's out of place. The chorus actually goes like this
G|---------------------------|
D|---------------------------|
A|---------------------------|
D|0--6--3--/9--6--3-6-3-/9-6-|
But I'll still give it 5 stars.

guest
You may want to rate the tab now too:
select rating
Wanna post a correction for this tab? Suggest correction