Oops, an error
Loading. Please wait.

Gunslinger solo tab

version 1
version 1
106,642 views 39 this week
19 commentsread comments
1 2 3 4 5
x 36
add to favorites
×
Save as Personal and add changes to this tab that will be seen only by you. Learn more ›
×
You can save this tab as Personal to edit and correct it or add notes. All changes will be seen only by you. Learn more »
launch autoscroll
font size
0
reset
how to read this tab
guitar tuner
backing track
0:00
0:00
edit
Autoscroll
slow
fast
+/-
esc
set tempo
stop
Artist: Avenged Sevenfold
Song: Gunslinger
Tabbed by: Bjovi400

Tuning: Drop D

[Solo]
e|----------12-13-12~--/12-13-15-17^18-rb17~-15^17-rb13--12-13-12---------------|
B|-/15~-/15~------------------------------------------------------13-15^17-rb15~|
G|------------------------------------------------------------------------------|
D|------------------------------------------------------------------------------|
A|------------------------------------------------------------------------------|
D|------------------------------------------------------------------------------|

e|-12-13-12~----------*13*----12-12^13-12-12^13hb----17--17^18rb-15^17rb--------|
B|-----------/13-11--------------------------------15--15---------------15~-----|
G|------------------14~---14-12-12------12--------------------------------------|
D|------------------------------------------------------------------------------|
A|------------------------------------------------------------------------------|
E|------------------------------------------------------------------------------|


************************************

| /  Slide up
| ~  Vibrato
| *  Natural harmonic

************************************

            
            
Suggest correction
Creating personal tab
Creating personal tab
You can edit any tab online and save it as your Personal.

You can edit, replace or remove any tab part or add personal notes – all changes will be seen only by you.

Personal tabs can be accessed anytime from any device, even offline.
Learn more »
comments
print report bad tab
19 comments total. Showing first comments.
0 reply
Momryk 21 Oct 17, 2007 09:37 AM

where did you hear this song!!!?

0 reply
chads_in_hi_fi 97 Oct 17, 2007 12:06 PM

i second that comment

0 reply
bjovi400 289 Oct 17, 2007 01:40 PM

it was leaked as of oct. 16th. its on some torrent sites

guest
You may want to rate the tab now too:
select rating
Wanna post a correction for this tab? Suggest correction