Oops, an error
Loading. Please wait.

Gunslinger Tab

version 1
version 1

Whole song

Interactive

206,241 views 84 this week
13 commentsread comments
1 2 3 4 5
x 11
add to favorites
launch autoscroll
font size
0
reset
how to read this tab
guitar tuner
Autoscroll
slow
fast
+/-
esc
set tempo
stop
Help us to improve Ultimate-Guitar.com Take our survey!
×
Author
Tuning
D A D G B E
-------------------------------------------------------------------------------
                             Gunslinger - Avenged Sevenfold
-------------------------------------------------------------------------------
Tabbed by: Bjovi400

This is Gunslinger from A7X's new self-titled album. The intro is acoustic, and im not a 
acoustic player, so im not too sure what chords are being played.

Tuning: Drop D

    starts @ 1:22
e|--------------------------------------------------------------|
B|--------------------------*15*---------------------------*15*-|
G|---------2-3/-5-----------*15*----------2-3/-5-----------*15*-|
D|---------2-3/-5-------------------------2-3/-5----------------|
A|---0-3-5-0-1/-3--0-3--0-0---------0-3-5-0-1/-3--0-3-0000------|
D|---0-3-5---------0-3--0-0---------0-3-5---------0-3-0000------|

    starts @ 1:35
e|-----------------------------------------------|
B|-----------------------------------------------|
G|-----------------------------------------------|
D|-----------------------------------------------| 2X
A|---5-3-5-3-5-3-5/8--5-3-5-3-5-3--00000000------|
D|---------------------------------00000000------|

    starts @ 1:46
e|-------------------------------------------------|
B|-------------------------------------------------|
G|-3-33-3--5-55-5--2-22-2--5-55-5---2-22-2--3-33-3-|
D|-3-33-3--5-55-5--0-00-0--5-55-5---2-22-2--3-33-3-|
A|-1-11-1--3-33-3--0-00-0--3-33-3---0-00-0--1-11-1-|
D|-----------------0-00-0--------------------------|

e|-------------------------------------------------------------|
B|-------------------------------------------------------------|
G|--2-22-2--5-55-5--2-22-2--3-33-3--3-3-3-3--5-5-5-5--3-3-3-3--|
D|--0-00-0--5-55-5--2-22-2--3-33-3--3-3-3-3--5-5-5-5--3-3-3-3--|
A|--0-00-0--3-33-3--0-00-0--1-11-1--1-1-1-1--3-3-3-3--1-1-1-1--|
D|--0-00-0-----------------------------------------------------|

     2:25
e|--------------------------------------|
B|--------------------------------------|
G|--5-5-5-5--------------5-5--3-3-3-3---|
D|--5-5-5-5--3-3----0-0--5-5--3-3-3-3---| 5x
A|--3-3-3-3--3-3----0-0--3-3--1-1-1-1---|
D|-----------3-3-2--0-0-----------------|

solo stars after 3rd ^ time: 2:56

e|----------12-13-12~--/12-13-15-17^18-rb17~-15^17-rb13--12-13-12---------------|
B|-/15~-/15~------------------------------------------------------13-15^17-rb15~|
G|------------------------------------------------------------------------------|
D|------------------------------------------------------------------------------|
A|------------------------------------------------------------------------------|
D|------------------------------------------------------------------------------|

e|-12-13-12~----------*13*----12-12^13-12-12^13hb----17--17^18rb-15^17rb--------|
B|-----------/13-11--------------------------------15--15---------------15~-----|
G|------------------14~---14-12-12------12--------------------------------------|
D|------------------------------------------------------------------------------|
A|------------------------------------------------------------------------------|
D|------------------------------------------------------------------------------|

     3:26
e|----------------------------------|
B|----------------------------------|
G|--2-22-2--5-55-5--2-22-2--3-33-3--|
D|--0-00-0--5-55-5--2-22-2--3-33-3--| 2x
A|--0-00-0--3-33-3--0-00-0--1-11-1--|
D|--0-00-0--------------------------|


    3:50
e|-----------------------------------------|
B|-----------------------------------------|
G|--3-3-3-3--5-5-5-5--3-3-3-3--5-5-5-5-----|
D|--3-3-3-3--5-5-5-5--3-3-3-3--5-5-5-5--0~-|
A|--1-1-1-1--3-3-3-3--1-1-1-1--3-3-3-3--0~-|
D|--------------------------------------0~-|

Thats it. Now there are a few spots of lead work mixed around there, but they are very 
and you cant really hear them well. This is one of A7X's best songs, in my opinion.


*************************************************

/     Slide to
~     Vibrato or let ring
rb    Release bend
hb    Hold bend
*#*   Pinch harmonic
17^18 Bend to sound like # on right of ^

*************************************************
Suggest correction
comments
print report bad tab
13 comments total. Showing first comments.
0 reply
FMAM-Lead-Gtar 31 Oct 19, 2007 03:54 PM

pretty good tab, some parts missing though, im not sure on some parts of this either, a guitar pro tab would be nice if anyone wants to make one,l i find it easyer to learn from them. anyways, 4 stars!

0 reply
rayjrvasquez 10 Oct 19, 2007 06:03 PM

cool now do scream or afterlife

0 reply
the_messenger66 1,322 Oct 19, 2007 06:42 PM

dude, nice tab. i wish you had the acoustic intro though.... I'm working on it, and i'll give it to you when I get done with it.
5*

guest
You may want to rate the tab now too:
select rating
Wanna post a correction for this tab? Suggest correction