Oops, an error
Loading. Please wait.
We have an official Hail To The King tab made by UG professional guitarists. Check out the tab »
×
36,261 views 117 this week
7 commentsread comments
1 2 3 4 5
x 25
add to favorites
×
Save as Personal and add changes to this tab that will be seen only by you. Learn more ›
×
You can save this tab as Personal to edit and correct it or add notes. All changes will be seen only by you. Learn more »
launch autoscroll
font size
0
reset
how to read this tab
guitar tuner
backing track
0:00
0:00
edit
Autoscroll
slow
fast
+/-
esc
set tempo
stop
INTRO part 1:

   GTR 1:

    ||--12-12---14-0---15-0---14-0---14-12-0-0--|
    ||-------12-----12-----12-----12------------|
    ||------------------------------------------| x3
    ||------------------------------------------|
    ||------------------------------------------|
    ||------------------------------------------|

     |--17----0-17----0-|-15----0-15----0-|-14-10-0-14--||
     |-----15------15---|----15------15---|-------------||
     |------------------|-----------------|-------------|| x6
     |------------------|-----------------|-------------||
     |------------------|-----------------|-------------||
     |------------------|-----------------|-------------||

   GTR 2:

    ||-----------------------|    |------------------|    ||
    ||-----------------------|    |------------------|    ||
    ||-----just-guitar-1-----| x2 |-------drums------| x2 ||
    ||-----------------------|    |------------------|    ||
    ||-----------------------|    |------------------|    ||
    ||-----------------------|    |------------------|    ||

    ||-----------------------|    |------------------|    ||
    ||-----------------------|    |------------------|    ||
    ||-----------------------| x2 |------------------| x2 ||
    ||--2-4-5----------------|    |--2-4-5--x-x------|    ||
    ||--2-4-5----------------|    |--2-4-5--x-x------|    ||
    ||--2-4-5----------------|    |--2-4-5--x-x------|    ||

    ||-----------------------|    |-----------------------||
    ||-----------------------|    |-----------------------||
    ||-----------------------| x3 |-----------------------||
    ||--2-4-5--X-X--X-X--X-X-|    |--2-4-5--x-0-----------||
    ||--2-4-5--X-X--X-X--X-X-|    |--2-4-5--x-0-----------||
    ||--2-4-5--X-X--X-X--X-X-|    |--2-4-5--x-0----5-4-0--||


[INTRO] part 2:

   GTR 1:

    ||----------|---------|---------|---------|    |---------|    ||
    ||--5-8-5-0-|-5-8-5-0-|-5-8-5-0-|-3-5-3-0-|    |-3-5-3-0-|    ||
    ||----------|---------|---------|---------| x3 |---------| x4 || x2
    ||----------|---------|---------|---------|    |---------|    ||
    ||----------|---------|---------|---------|    |---------|    ||
    ||----------|---------|---------|---------|    |---------|    ||

   GTR 2:

    ||--------------|-------------|-------------|-----------------||
    ||--------------|-------------|-------------|-----------------||
    ||--------------|-------------|-------------|-----------------|| x2
    ||--2---2-2-5-0-|-2---2-2-5-0-|-2---2-2-5---|--0---0----------||
    ||--2---2-2-5-0-|-2---2-2-5-0-|-2---2-2-5---|--0---0----------||
    ||--2---2-2-5-0-|-2---2-2-5-0-|-2---2-2-5---|--0---0---5-4-0--||


[Verse]

   GTR 1:

    ||----------|---------|----------|----------|
    ||--5-8-5-0-|-5-8-5-0-|-3-5-3-0--|-3-5-3-0--|
    ||----------|---------|----------|----------| x2
    ||----------|---------|----------|----------|
    ||----------|---------|----------|----------|
    ||----------|---------|----------|----------|

     |----------|---------|----------|----------|
     |--5-8-5-0-|-5-8-5-0-|-7-10-7-0-|-7-10-7-0-|
     |----------|---------|----------|----------|
     |----------|---------|----------|----------|
     |----------|---------|----------|----------|
     |----------|---------|----------|----------|

     |---------|    ||
     |-3-5-3-0-|    ||
     |---------| x4 ||
     |---------|    ||
     |---------|    ||
     |---------|    ||

   GTR 2:
            PM.....................              PM.........
    ||-----------------------------------||----------------------------||
    ||-----------------------------------||----------------------------||
    ||-----------------------------------||----------------------------|| x2
    ||--2---------------------------5-0--||--2---------------0---------||
    ||--2---------------------------5-0--||--2---------------0---------||
    ||--2---2-2-2-2-2-2-2-2-2-2-2-2-5-0--||--2---2-2-2-2-2-2-0---5-4-0-||


[Pre-Chorus]

   GTR 1:

    ||-------------|    |------------||
    ||--10-13-10-0-|    |-8-10-8-10--||
    ||-------------| x3 |------------|| x4
    ||-------------|    |------------||
    ||-------------|    |------------||
    ||-------------|    |------------||

    ||-------------|    |------------||
    ||--12-15-12-0-|    |-10-12-10-0-||
    ||-------------| x3 |------------|| x2
    ||-------------|    |------------||
    ||-------------|    |------------||
    ||-------------|    |------------||

    ||-------------||
    ||--12-15-12-0-||
    ||-------------|| x8
    ||-------------||
    ||-------------||
    ||-------------||

   GTR 2:

    ||-----------|------------|----------|------------|
    ||-----------|------------|----------|------------|
    ||-----------|------------|----------|------------|
    ||--7-----10-|-7-----10-5-|-7-----10-|-7-----10-5-|
    ||--7-----10-|-7-----10-5-|-7-----10-|-7-----10-5-|
    ||--7-----10-|-7-----10-5-|-7-----10-|-7-----10-5-|

     |-----------|------------|----------|------------||
     |-----------|------------|----------|------------||
     |-----------|------------|----------|------------||
     |--9-----12-|-9-----12-7-|-9-----12-|-9--------5-||
     |--9-----12-|-9-----12-7-|-9-----12-|-9--------5-||
     |--9-----12-|-9-----12-7-|-9-----12-|-9--------5-||


[Chorus]

   GTR 1:

    ||------------------------------------------------------||
    ||----12----10--10\12--10----12----10--10\12--10--------||
    ||--9----9-----------------9----9------------------7~---||
    ||------------------------------------------------------||
    ||------------------------------------------------------||
    ||------------------------------------------------------||

   GTR 2:

    ||------------|-------------|-------------|-------------||
    ||------------|-------------|-------------|-------------||
    ||------------|-------------|--5----------|--7----------|| x2
    ||--2---------|--0----------|--5----------|--7----------||
    ||--2---------|--0----------|--3------0-2-|--5----------||
    ||--2---------|--0----5-4-0-|-------------|-------5-4-0-||


[POS-CHORUS:]

   GTR 1:

    ||-----------------------------------|    |---------|    ||
    ||--5-0-0-7-0-0-8-0-0-7-0-0-7-5-0-0--|    |-3-5-3-0-|    ||
    ||-----------------------------------| x3 |---------| x4 ||
    ||-----------------------------------|    |---------|    ||
    ||-----------------------------------|    |---------|    ||
    ||-----------------------------------|    |---------|    ||

   GTR 2:

    ||-----------------------|-----------------------||
    ||-----------------------|-----------------------||
    ||-----------------------|-----------------------||
    ||--2-4-5--X-X--X-X--X-X-|--2-4-5--x-0-----------||
    ||--2-4-5--X-X--X-X--X-X-|--2-4-5--x-0-----------||
    ||--2-4-5--X-X--X-X--X-X-|--2-4-5--x-0----5-4-0--||


[Verse]
[Pre-Chorus]
[Chorus]
[POS-CHORUS]


[Solo 1]

   GTR 1:

    ||-----------|    |------------|    |----------|    ||
    ||--5-8-5-0--|    |-7-10-7-0---|    |-4-7-4-0--|    ||
    ||-----------| x4 |------------| x2 |----------| x2 || x2
    ||-----------|    |------------|    |----------|    ||
    ||-----------|    |------------|    |----------|    ||
    ||-----------|    |------------|    |----------|    ||

    ||-----------|    |------------|    |----------|
    ||--5-8-5-0--|    |-10-13-10-0-|    |-7-10-7-0-|
    ||-----------| x4 |------------| x2 |----------| x2
    ||-----------|    |------------|    |----------|
    ||-----------|    |------------|    |----------|
    ||-----------|    |------------|    |----------|

     |-----------|    |------------|    |---------||
     |-8-12-8-0--|    |-7-11-7-0---|    |-7\12~~~-||
     |-----------| x2 |------------| x2 |---------||
     |-----------|    |------------|    |---------||
     |-----------|    |------------|    |---------||
     |-----------|    |------------|    |---------||

   GTR 2:

    ||------------|-------------|    |------------|----------------------||
    ||------------|-------------|    |------------|----------------------||
    ||------------|---------4---| x2 |------------|------------------4---||
    ||--2---------|--0------4---|    |--2---------|--7---4---5---4---4---||
    ||--2---------|--0------2---|    |--2---------|--7---4---5---4---2---||
    ||--2---------|--0----------|    |--2---------|--7---4---5---4-------||


[Solo 2]

   GTR 1:
                                                                 1/2
    ||----------------------------------------------------------11b--(12)(12)-(12)-|
    ||-----------5\7-5-4~--5\7~---7\13-12-10~--12-13-10~--12-13--------------------|
    ||--\4~--3-4-------------------------------------------------------------------|
    ||-----------------------------------------------------------------------------|
    ||-----------------------------------------------------------------------------|
    ||-----------------------------------------------------------------------------|

     |--\11~---12-14-11~---12-14-\19~--17-15------\19--20--17--19--20--17--19~~~~--||
     |---------------------------------------17~-----------------------------------||
     |-----------------------------------------------------------------------------||
     |-----------------------------------------------------------------------------||
     |-----------------------------------------------------------------------------||
     |-----------------------------------------------------------------------------||

   GTR 2:
            PM.........................................................
    ||------------------------------------------------------------------|
    ||------------------------------------------------------------------|
    ||------------------------------------------------------------------|
    ||--2---------------4-4-4-4-4-4-4-4-2-2-2-2-2-2-2-2-----------------|
    ||--2---2-2-2-2-2-2-2-2-2-2-2-2-2-2-0-0-0-0-0-0-0-0-2-2-2-2-2-2-2-2-|
    ||--2---2-2-2-2-2-2---------------------------------2-2-2-2-2-2-2-2-|

        PM.............................................
     |------------------------------------------------------------------||
     |------------------------------------------------------------------||
     |--------------------------------------------------4---------------||
     |--4-4-4-4-4-4-4-4-----------------4-4-4-4-4-4-4-4-4---------------||
     |--2-2-2-2-2-2-2-2-2-2-2-2-2-2-2-2-2-2-2-2-2-2-2-2-2---------------||
     |------------------2-2-2-2-2-2-2-2---------------------------5-4-0-||


[Solo 3]

   GTR 1:

    ||----------------------11-12-14-15~--14--12--11-14-12-11------------------------|
    ||-------------------12-----------------------------------13-12-10---------------|
    ||-----------9-11-12-----------------------------------------------12-11-9-8~~8\-|
    ||---------9---------------------------------------------------------------------|
    ||--7-9-10-----------------------------------------------------------------------|
    ||------------------------------------------------------------------------------|

     |---------12-17p12----------12-16p12----------12-15p12----------12-14p12------|
     |------13----------13----13----------13----13----------13----13----------13---|
     |--\14----------------14----------------14----------------14----------------14|
     |-----------------------------------------------------------------------------|
     |-----------------------------------------------------------------------------|
     |-----------------------------------------------------------------------------|

     |--14-15-14-------------------------------------------------------------------|
     |-----------17----------------------------------------------------------------|
     |--------------16-------14----------------------------------------------------|
     |-----------------17-16----17-16-14-------------------------------------------|
     |-----------------------------------14----------------------------------------|
     |--------------------------------------17-16-14~~-----------------------------|

     |-----------------------------7-8-11-12p7-------------------------------------|
     |-----------------------7-8-10-------------8-7--------------------------------|
     |---------------------8-----------------------9-------------------------------|
     |---------------7-8-9---------------------------9-----------------------------|
     |-----------6-9-----------------------------------10-9-7~~--------------------|
     |--9-10-8-9-------------------------------------------------------------------|

                                             N.H.  V        ^
     |-----3--2--------------------------------------------------------------------||
     |--5--------5--4--------------------------------------------------------------||
     |-----------------5-4-2-------------------------------------------------------||
     |-----------------------5-4-2-------------------------------------------------||
     |-----------------------------3-2-1-0---(5)-------(2)-------------------------||
     |-----------------------------------------------------------------------------||

   GTR 2:
            PM.........................................................
    ||------------------------------------------------------------------|
    ||------------------------------------------------------------------|
    ||------------------------------------------------------------------|
    ||--2---------------4-4-4-4-4-4-4-4-2-2-2-2-2-2-2-2-----------------|
    ||--2---2-2-2-2-2-2-2-2-2-2-2-2-2-2-0-0-0-0-0-0-0-0-2-2-2-2-2-2-2-2-|
    ||--2---2-2-2-2-2-2---------------------------------2-2-2-2-2-2-2-2-|

        PM.............................
     |------------------------------------------------------------------||
     |------------------------------------------------------------------||
     |------------------------------------------------------------------||
     |--4-4-4-4-4-4-4-4-----------------4-------4-------2------6-----0--||
     |--2-2-2-2-2-2-2-2-2-2-2-2-2-2-2-2-2-------4-------0------4-----0--||
     |------------------2-2-2-2-2-2-2-2------------------------------0--||



[INTRO] part 1:

   GTR 1:

    ||--12-12---14-0---15-0---14-0---14-12-0-0--|
    ||-------12-----12-----12-----12------------|
    ||------------------------------------------| x3
    ||------------------------------------------|
    ||------------------------------------------|
    ||------------------------------------------|

     |--17----0-17----0-|-15----0-15----0-|-14-10-0-14--||
     |-----15------15---|----15------15---|-------------||
     |------------------|-----------------|-------------|| x2
     |------------------|-----------------|-------------||
     |------------------|-----------------|-------------||
     |------------------|-----------------|-------------||

    ||--12-12---14-0---15-0---14-0---14-12-0-0--|
    ||-------12-----12-----12-----12------------|
    ||------------------------------------------| x3
    ||------------------------------------------|
    ||------------------------------------------|
    ||------------------------------------------|

     |-14-10-0-14--|    ||
     |-------------|    ||
     |-------------| x4 ||
     |-------------|    ||
     |-------------|    ||
     |-------------|    ||


   GTR 2:

    ||--------------------------------------------------||
    ||--------------------------------------------------||
    ||--------------------------------------------------||
    ||--2-----------------------------------------------|| 
    ||--2-----------------------------------------------||
    ||--2-----------------------------------------------||

    ||-----------------------|    |---------------------||
    ||-----------------------|    |---------------------||
    ||-----------------------|    |---------------------||
    ||--2-4-5--X-X--X-X--X-X-| x3 |--2-4-5--x-0---------||
    ||--2-4-5--X-X--X-X--X-X-|    |--2-4-5--x-0---------||
    ||--2-4-5--X-X--X-X--X-X-|    |--2-4-5--x-0---------||


[CHORUS] x2


[POS-CHORUS] b:

   GTR 1:

    ||-----------------------------------|    |---------||
    ||--5-0-0-7-0-0-8-0-0-7-0-0-7-5-0-0--|    |--3~~~~--||
    ||-----------------------------------| x3 |---------||
    ||-----------------------------------|    |---------||
    ||-----------------------------------|    |---------||
    ||-----------------------------------|    |---------||

   GTR 2:

    ||-----------------------|-----------------------||
    ||-----------------------|-----------------------||
    ||-----------------------|-----------------------||
    ||--2-4-5--X-X--X-X--X-X-|--2-4-5--x-0-----------||
    ||--2-4-5--X-X--X-X--X-X-|--2-4-5--x-0-----------||
    ||--2-4-5--X-X--X-X--X-X-|--2-4-5--x-0-----------||


Hope you enjoy it!
Please vote so that I keep posting A7X tabs :)
Thanks!



************************************

| x    Dead note
| (n)  Ghost note
| p    Pull-off
| b    Bend
| \    Slide down
| ~    Vibrato   

************************************

            
            
Suggest correction
Creating personal tab
Creating personal tab
You can edit any tab online and save it as your Personal.

You can edit, replace or remove any tab part or add personal notes – all changes will be seen only by you.

Personal tabs can be accessed anytime from any device, even offline.
Learn more »
comments
print report bad tab
7 comments total. Showing first comments.
-1 reply
Audible Warfare 806 Sep 11, 2013 07:29 PM

This tab is so unneeded. We already have what? 12 versions of this song?

0 reply
satboog 352 Sep 12, 2013 02:35 AM

The best rated tab in UG has pull-offs which I think is not correct.
Also UG didn't accept my tab with all solos so the solos parts are still to be approved (also the best rated tab with solos does not have the solos 100% accurate).
Just posted because of that.

0 reply
Ballermcnasty 10 Mar 28, 2014 03:59 PM

GTR 1: THE INTRO ISNT EVEN A LITTLE BIT RIGHT HERE IS THE RIGHT ONE

||--12-12---14-0---15-0---14-0---14-12-0-0--|
||-------12----12------12-----12----------------|
||-----------------------------------------| x3
||-----------------------------------------|
||-----------------------------------------|
||-----------------------------------------|

guest
You may want to rate the tab now too:
select rating
Wanna post a correction for this tab? Suggest correction