Oops, an error
Loading. Please wait.

Hail To The King Tab

34,180 views 105 this week
13 commentsread comments
1 2 3 4 5
accurate
x 18
add to favorites
launch autoscroll
font size
0
reset
how to read this tab
guitar tuner
Tab Pro tools
  • play this tab
  • loop segment
  • change instrument
  • show fretboard
  • metronome
×
Best way to learn
"Hail To The King"
Autoscroll
slow
fast
+/-
esc
set tempo
stop
Contributor
Difficulty
Tabbers playing skills
advanced
intermediate +
Artist: Avenged Sevenfold
Track: Hail to the King Solo
Tabbed by: Adem Mars

=============================

Tuning: Db,Ab,Db,Gb,Bb,Eb,


Legend:

p   = Pull off
h   = Hammer on
1.2 = half step bend
()  = Bring to normal
^   = Bend
~   = Vibrato

=============================


This is my first tab solo so dont hate it just fix  it.. Leave a Messages if have 
a correction .. Avenged Sevenfold Forever!!

Solo A:

Eb|-----------------------------------|--------------------------------------|
Bb|--5h8p5p0-5h8p5p0-5h8p5p0-5h8p5p0--|--7h10p7p0-7h10p7p0-4h7p4p0--4h7p4p0--|
Gb|-----------------------------------|--------------------------------------| x2
Db|-----------------------------------|--------------------------------------|
Ab|-----------------------------------|--------------------------------------|
Db|-----------------------------------|--------------------------------------|

Eb|-----------------------------------|-------------------------------------------|
Bb|--5h8p5p0-5h8p5p0-5h8p5p0-5h8p5p0--|--10h13p10p0-10h13p10p0-7h10p7p0-7h10p7p0--|
Gb|-----------------------------------|-------------------------------------------|
Db|-----------------------------------|-------------------------------------------|
Ab|-----------------------------------|-------------------------------------------|
Db|-----------------------------------|-------------------------------------------|

Eb|------------------------------------------|
Bb|--8h12p8p0-8h12p8p0-7h11p7p0-7h11p7p0--12-|
Gb|------------------------------------------|
Db|------------------------------------------|
Ab|------------------------------------------|
Db|------------------------------------------|


SOLO B:                                          
                                                          ____1.2  1.2  1.2  1.2  1.2
Eb|-------------------------------------------------------11^------11^--11^--11^--11^--|
Bb|----------------------7/13--12-10--12-13-10---10-12---------------------------------|
Gb|----------/11-9---8-9---------------------------------------------------------------|
Db|--/9--8h9---------------------------------------------------------------------------|
Ab|------------------------------------------------------------------------------------|
Db|------------------------------------------------------------------------------------|

                                            (  Pick Hardly   )
Eb|--(11)---12-14-11---11-12/20--17-15------19-20-17-19-20-17----19~~---|
Bb|------------------------------------17-------------------------------|
Gb|---------------------------------------------------------------------|
Db|---------------------------------------------------------------------|
Ab|---------------------------------------------------------------------|
Db|---------------------------------------------------------------------|

Solo C:
                             ____1.2
Eb|-----------------------12-14---14-12--11-14-12-11--------------------|
Bb|--------------------12----------------------------10-7-10-8-7--------|
Gb|-----------9--11-12-------------------------------------------9-8~~--|
Db|---------9-----------------------------------------------------------|
Ab|--7-9-10-------------------------------------------------------------|
Db|---------------------------------------------------------------------|

Eb|------12171712----12161612----12151512----121412----14151412----------------------|
Bb|----13----------13----------13----------13------13-----------8-7-5-8-7-5----------|
Gb|--14----------14----------14----------14------------------------------------------|
Db|-------------------------------------------------------------------------5-4-2~~~-|
Ab|----------------------------------------------------------------------------------|
Db|----------------------------------------------------------------------------------|

Eb|------------------------------7-8-11--12-17-------------------|
Bb|-----------------------7-8-10---------------8-7---------------|
Gb|--------------------8---------------------------9-------------|
Db|--------------7-8-9-------------------------------9-----------|
Ab|-----------6-9--------------------------------------10-9-7~~--|
Db|--9-10-7-9----------------------------------------------------|

Eb|--------------------------------------------------------------|
Bb|----8-7----------------------------------10^^--(10)-----------|
Gb|--9-----9-8---------------------------------------------------|
Db|------------10-9-7--------------------------------------------|
Ab|-------------------10-9-7-6-----------------------------------|
Db|----------------------------10-9---7^^------------------------|
comments
print report bad tab
13 comments total. Showing first comments.
+1 reply
Mars Sevenfold wrote on August 20 2013, 03:08 am

sorry my sentence hanging a "This is my first solo tab hate it so just fix it .. Leave a Messages" it should be "This is my first solo tab so dont hate it just fix it .. Leave message if any correction in this tabs .. Thank you =)

+2 reply
callumfrew97 wrote on August 21 2013, 10:33 am

looks good man:) nice to see the TPA accepting your stuff haha

+1 reply
Mars Sevenfold wrote on August 21 2013, 06:16 pm

hehe.. Thanks mann..

I want to post or [tab]
guest
You may want to rate the tab now too:
select rating
Please do not post tabs as comments. Select "correction" instead!