Oops, an error
Loading. Please wait.

Hail To The King Tab

version 1
3,646 views 267 this week
no commentswrite comment
1 2 3 4 5
x 3
add to favorites
launch autoscroll
font size
0
reset
how to read this tab
guitar tuner
backing track
0:00
0:00
×
Best way to learn
"Hail To The King"
Autoscroll
slow
fast
+/-
esc
set tempo
stop
Author
Difficulty
Tuning
intermediate
C# G# C# F# A# D#
Artist: Avenged Sevenfold  |
Album:  Hail to the King   |
----------------------------

Tabbed by Marcio Matheus
E-mail: ciinhuu.viips@hotmail.com



Tune = Drop C# (Eb,Bb,Gb,Db,Ab,Db)

h = Hammer On
p = Pull Off
/ = Slide
. = Palm-Mute
b = Bend
r = Release
()= Let the note ring

-----------------------------------------------------------------------------





 [Intro]
 (Gtr I)
|-12-------14-------15-------14-------14---------------------------|
|----12-12----12-12----12-12----12-12----12-12-12------------------|
|------------------------------------------------------------------|
|------------------------------------------------------------------|
|------------------------------------------------------------------|
|------------------------------------------------------------------|
|                                                                  |
|-12-------14-------15-------14-------14---------------------------|
|----12-12----12-12----12-12----12-12----12-12-12------------------|
|------------------------------------------------------------------|
|------------------------------------------------------------------|
|------------------------------------------------------------------|
|------------------------------------------------------------------|
|                                                                  | [00:00~00:50]
|-12-------14-------15-------14-------14---------------------------|
|----12-12----12-12----12-12----12-12----12-12-12------------------|
|------------------------------------------------------------------|
|------------------------------------------------------------------|
|------------------------------------------------------------------|
|------------------------------------------------------------------|
|                                                                  |
|-17-------17-------15-------15-------14---------------------------|
|----12-12----12-12----12-12----12-12----12-12-12------------------|
|------------------------------------------------------------------|
|------------------------------------------------------------------|
|------------------------------------------------------------------|
|------------------------------------------------------------------|
|                                                                  |
|(Gtr II)                                                          |
|------------------------------------------------------------------|
|------------------------------------------------------------------|
|------------------------------------------------------------------| (4x)
|------------------------------------------------------------------|
|--2---4---5---2---2-----------------------------------------------|
|--2---4---5---2---2-----------------------------------------------|
|              .   .                                               |
|------------------------------------------------------------------|
|------------------------------------------------------------------|
|------------------------------------------------------------------| (3x)
|------------------------------------------------------------------|
|--2---4---5---2---2------2---2------2---2-------------------------|
|--2---4---5---2---2------2---2------2---2-------------------------|
|              .   .      .   .      .   .                         |
|------------------------------------------------------------------|
|------------------------------------------------------------------|
|------------------------------------------------------------------|
|------------------------------------------------------------------|
|--2---4---5---2--7--7--7--7--7------------------------------------|
|--2---4---5---2--7--7--7--7--7--5--4--0---------------------------|





 [Riff I]
 (Gtr I)
|------------------------------------------------------------------|
|--5--8--5--0--5--8--5--0--5--8--5--0--3--5--3--0------------------|
|------------------------------------------------------------------|
|------------------------------------------------------------------|
|------------------------------------------------------------------|
|------------------------------------------------------------------|
|                                                                  |
|------------------------------------------------------------------|
|--5--8--5--0--5--8--5--0--5--8--5--0--3--5--3--0------------------|
|------------------------------------------------------------------|
|------------------------------------------------------------------|
|------------------------------------------------------------------|
|------------------------------------------------------------------|
|                                                                  | [00:51~01:08]
|------------------------------------------------------------------|
|--5--8--5--0--5--8--5--0--5--8--5--0--3--5--3--0------------------|
|------------------------------------------------------------------|
|------------------------------------------------------------------|
|------------------------------------------------------------------|
|------------------------------------------------------------------|
|                                                                  |
|------------------------------------------------------------------|
|--3--5--3--0--3--5--3--0--3--5--3--0--3--5--3--0------------------|
|------------------------------------------------------------------|
|------------------------------------------------------------------|
|------------------------------------------------------------------|
|------------------------------------------------------------------|
|                                                                  |
|(Gtr II)                                                          |
|------------------------------------------------------------------|
|------------------------------------------------------------------|
|------------------------------------------------------------------|
|------------------------------------------------------------------|
|--2---------------5---0---2-------5---0---2-------5---0---2-------|
|--2---------------5---0---2-------5---0---2-------5---0---2-------|
|                                                                  | (2x)
|------------------------------------------------------------------|
|------------------------------------------------------------------|
|------------------------------------------------------------------|
|------------------------------------------------------------------|
|--5---------0-----------------------------------------------------|
|--5---------0-----5--4--0-----------------------------------------|





 [Verse]
 (Gtr I)
|------------------------------------------------------------------|
|--5--8--5--0--5--8--5--0--3--5--3--0--3--5--3--0------------------|
|------------------------------------------------------------------|
|------------------------------------------------------------------|
|------------------------------------------------------------------|
|------------------------------------------------------------------|
|                                                                  |
|------------------------------------------------------------------|
|--5--8--5--0--5--8--5--0--3--5--3--0--3--5--3--0------------------|
|------------------------------------------------------------------|
|------------------------------------------------------------------|
|------------------------------------------------------------------|
|------------------------------------------------------------------|
|                                                                  | [01:08~01:24]
|------------------------------------------------------------------|
|--5--8--5--0--5--8--5--0--8--10--8--0--8--10--8--0----------------|
|------------------------------------------------------------------|
|------------------------------------------------------------------|
|------------------------------------------------------------------|
|------------------------------------------------------------------|
|                                                                  |
|------------------------------------------------------------------|
|--3--5--3--0--3--5--3--0--3--5--3--0--3--5--3--0------------------|
|------------------------------------------------------------------|
|------------------------------------------------------------------|
|------------------------------------------------------------------|
|------------------------------------------------------------------|
|                                                                  |
|(Gtr II)                                                          |
|------------------------------------------------------------------|
|------------------------------------------------------------------|
|------------------------------------------------------------------|
|------------------------------------------------------------------|
|--2---2---2---2---2---2---2---2---2---2---2---2---5---0-----------|
|--2---2---2---2---2---2---2---2---2---2---2---2---5---0-----------|
|      .   .   .   .   .   .   .   .   .   .   .                   | (2x)
|------------------------------------------------------------------|
|------------------------------------------------------------------|
|------------------------------------------------------------------|
|------------------------------------------------------------------|
|--2---2---2---2---2---2---2---2---2---2---2---2---0---------------|
|--2---2---2---2---2---2---2---2---2---2---2---2---0---5--4--0-----|
       .   .   .   .   .   .   .   .   .   .   .                   





 [Pre-Chorus]
 (Gtr I)
|--12-8-------12-8-------12-8--------------------------------------|
|-------10---------10---------10----8-10-8-------------------------|
|----------9----------9----------9---------9-----------------------|
|------------------------------------------------------------------|
|------------------------------------------------------------------|
|------------------------------------------------------------------|
|                                                                  | [01:24~01:30]
|--12-8-----------------12-8---------------------------------------|
|-------10----8-10-8---------10----8-10-8--------------------------|
|----------9---------9----------9---------9------------------------|
|------------------------------------------------------------------|
|------------------------------------------------------------------|
|------------------------------------------------------------------|
|                                                                  |
|(Gtr II)                                                          |
|------------------------------------------------------------------|
|------------------------------------------------------------------|
|------------------------------------------------------------------| (2x)
|------------------------------------------------------------------|
|--7-------10---7-------10---5---7---------------------------------|
|--7-------10---7-------10---5---7---------------------------------|
|                                                                  |
|(Gtr I)                                                           |
|------------------------------------------------------------------|
|--12-15-12-0--12-15-12-0--12-15-12-0--10-12-10-0------------------|
|------------------------------------------------------------------| [01:30~01:38]
|------------------------------------------------------------------|
|------------------------------------------------------------------|
|------------------------------------------------------------------|
|                                                                  |
|(Gtr II)                                                          |
|------------------------------------------------------------------|
|------------------------------------------------------------------|
|------------------------------------------------------------------| (2x)
|------------------------------------------------------------------|
|--9-------12---9-------12---7---9---------------------------------|
|--9-------12---9-------12---7---9---------------------------------|





 [Chorus]
 (Gtr I)
|------------------------------------------------------------------|
|--12---8---10---12---10---(10)------12---8---10---12---10---(10)--|
|------------------------------------------------------------------| [01:39~01:54]
|------------------------------------------------------------------|
|------------------------------------------------------------------|
|------------------------------------------------------------------|
|                                                                  |
|(Gtr II)                                                          |
|------------------------------------------------------------------|
|------------------------------------------------------------------|
|------------------------------5-------7---------------------------| (2x)
|--2-------0-------------------5-------7---------------------------|
|--2-------0-------------------3-------5---------------------------|
|--2-------0-----5---4---0-------------------5---4---0-------------|




Repeat All [01:55~02:54]
Repeat Intro [02:54~03:01]




 [Solo 1]
 (Gtr I)                                                           
|------------------------------------------------------------------|
|--5--8--5--0--5--8--5--0--5--8--5--0--5--8--5--0------------------|
|------------------------------------------------------------------|
|------------------------------------------------------------------|
|------------------------------------------------------------------|
|------------------------------------------------------------------|
|                                                                  |
|------------------------------------------------------------------|
|--7--10--7--0--7--10--7--0--4--7--4--0--4--7--4--0----------------|
|------------------------------------------------------------------|
|------------------------------------------------------------------|
|------------------------------------------------------------------|
|------------------------------------------------------------------|
|                                                                  |
|------------------------------------------------------------------|
|--5--8--5--0--5--8--5--0--5--8--5--0--5--8--5--0------------------|
|------------------------------------------------------------------|
|------------------------------------------------------------------|
|------------------------------------------------------------------|
|------------------------------------------------------------------|
|                                                                  | [03:01~03:16]
|------------------------------------------------------------------|
|--7--10--7--0--7--10--7--0--4--7--4--0--4--7--4--0----------------|
|------------------------------------------------------------------|
|------------------------------------------------------------------|
|------------------------------------------------------------------|
|------------------------------------------------------------------|
|                                                                  |
|------------------------------------------------------------------|
|--5--8--5--0--5--8--5--0--5--8--5--0--5--8--5--0------------------|
|------------------------------------------------------------------|
|------------------------------------------------------------------|
|------------------------------------------------------------------|
|------------------------------------------------------------------|
|                                                                  |
|------------------------------------------------------------------|
|--10--13--10--0--10--13--10--0--7--10--7--0--7--10--7--0----------|
|------------------------------------------------------------------|
|------------------------------------------------------------------|
|------------------------------------------------------------------|
|------------------------------------------------------------------|
|                                                                  |
|------------------------------------------------------------------|
|--8--12--8--0--8--12--8--0--7--11--7--0--7--11--7--0------12-(12)-|
|------------------------------------------------------------------|
|------------------------------------------------------------------|
|------------------------------------------------------------------|
|------------------------------------------------------------------|
|                                                                  |
|(Gtr II)                                                          |
|------------------------------------------------------------------|
|------------------------------------------------------------------|
|------------------------------------------------------------------|
|--2-------0-----9-------------2-------0------9--------------------|
|--2-------0-----9-------------2-------0------9--------------------|
|--2-------0-----9-------------2-------0------9--------------------|
|                                                                  |
|------------------------------------------------------------------|
|------------------------------------------------------------------|
|------------------------------------------------------------------|
|--2-------0-------7-------4------5-------4------9-----------------|
|--2-------0-------7-------4------5-------4------9-----------------|
|--2-------0-------7-------4------5-------4------9-----------------|




 [Solo 2]
 (Gtr I)                                                           
|------------------------------------------------------------------|
|-------------------------5--7/13--13---12--10~-----12--13--10~----|
|-----------/11---9---8--------------------------------------------|
|-/9---8h9---------------------------------------------------------|
|------------------------------------------------------------------|
|------------------------------------------------------------------|
|                                                                  |
|---------11b(12121212)~------11~-----11--12--14--11~--------------|
|-12--13-----------------------------------------------------------|
|------------------------------------------------------------------|
|------------------------------------------------------------------|
|------------------------------------------------------------------|
|------------------------------------------------------------------|
|                                                                  |
|-12--14--14/20--17--15-----------19--20--17--19--20--17--19~------|
|------------------------17~---------------------------------------|
|------------------------------------------------------------------|
|------------------------------------------------------------------|
|------------------------------------------------------------------|
|------------------------------------------------------------------|
|                                                                  |
|---------------------------12--14b15-14--12-----------------------|
|-------------------------12---------------------------------------|
|--------------9--11--12-------------------------------------------|
|-----------9------------------------------------------------------|
|-7--9--10---------------------------------------------------------|
|------------------------------------------------------------------|
|                                                                  |
|-11-14-12-11------------------------------------------------------|
|-------------10-7-10-8-7------------------------------------------|
|-------------------------9-8~-------------------------------------|
|------------------------------------------------------------------|
|------------------------------------------------------------------|
|------------------------------------------------------------------|
|                                                                  | [03:17~03:51]
|-------12-17-12-------12-16-12-------12-15-12-------12-14-12------|
|----13-------------13-------------13-------------13---------------|
|-14-------------14-------------14-------------14------------------|
|------------------------------------------------------------------|
|------------------------------------------------------------------|
|------------------------------------------------------------------|
|                                                                  |
|-14-15-14-12------------------------------------------------------|
|-------------8-7-5-8-7-5------------------------------------------|
|------------------------------------------------------------------|
|-------------------------5-4-2~-----------------------------------|
|------------------------------------------------------------------|
|------------------------------------------------------------------|
|                                                                  |
|-----------------------------7-8-11--12-7-------------------------|
|----------------------7-8-10--------------8-7---------------------|
|--------------------8-------------------------9-------------------|
|--------------7-8-9-----------------------------9-----------------|
|----------6-9-------------------------------------10-9-7~---------|
|-9-10-7-9---------------------------------------------------------|
|                                                                  |
|------------------------------------------------------------------|
|----8--7------------------------------------------------(10r8)----|
|-9--------9--8----------------------------------------------------|
|----------------10--9--7------------------------------------------|
|--------------------------10--9--7--6-----------------------------|
|---------------------------------------10--9---(7b11)-------------|
|                                                                  |
|(Gtr II)                                                          |
|------------------------------------------------------------------|
|------------------------------------------------------------------|
|------------------------------------------------------------------|
|--2---------------------------9-----------------------------------|
|--2---2---2---2---2---2---2---9---9---9---9---9---9---9-----------|
|--2---2---2---2---2---2---2---9---9---9---9---9---9---9-----------|
|      .   .   .   .   .   .       .   .   .   .   .   .           |
|------------------------------------------------------------------|
|------------------------------------------------------------------|
|------------------------------------------------------------------|
|--7---------------------------2-----------------------------------|
|--7---7---7---7---7---7---7---2---2---2---2---2---2---2-----------|
|--7---7---7---7---7---7---7---2---2---2---2---2---2---2-----------|
|      .   .   .   .   .   .       .   .   .   .   .   .           | (2x)
|------------------------------------------------------------------|
|------------------------------------------------------------------|
|------------------------------------------------------------------|
|--2---------------------------9-----------------------------------|
|--2---2---2---2---2---2---2---9---9---9---9---9---9---9-----------|
|--2---2---2---2---2---2---2---9---9---9---9---9---9---9-----------|
|      .   .   .   .   .   .       .   .   .   .   .   .           |
|------------------------------------------------------------------|
|------------------------------------------------------------------|
|------------------------------------------------------------------|
|--7---------------------------2-----------------------------------|
|--7---7---7---7---7---7---7---2---2---2---2---2---2---2-----------|
|--7---7---7---7---7---7---7---2---2---2---2---2---2---2-----------|
       .   .   .   .   .   .       .   .   .   .   .   .           



Repeat Intro (As Guitar Two) [03:51~04:15]
Repeat Chorus [04:16~04:48]
Repeat Intro [04:48~END]
Suggest correction
Give kudos to tab author, rate the tab!
1 2 3 4 5
comments
print report bad tab
guest
You may want to rate the tab now too:
select rating
Wanna post a correction for this tab? Suggest correction