Oops, an error
Loading. Please wait.

Hail To The King Bass Tab

version 2
version 2
3,731 views 3 this week
no commentswrite comment
1 2 3 4 5
accurate
x 4
add to favorites
launch autoscroll
font size
0
reset
guitar tuner
Autoscroll
slow
fast
+/-
esc
set tempo
stop
Help us to improve Ultimate-Guitar.com Take our survey!
×
Author
Difficulty
Tuning
Teh D Bot 10,232
novice
C# G# C# F# A# D#
0:48
F#|-------------------------------------------------------------------|
C#|o-----------------------------------------------------------------o|
G#|o-----------------------------------------------------------------o|
C#|--2---2---2-5-0-2-2---2---2-5-0-2-2---2---2-5-5---0---0---5-4-0----|
     1 + 2 + 3 + 4 + 1 + 2 + 3 + 4 + 1 + 2 + 3 + 4 + 1 + 2 + 3 + 4 +

1:05 Verse
F#|-------------------------------------------------------------------|
C#|o-----------------------------------------------------------------o|
G#|o-----------------------------------------------------------------o|
C#|--2---2-2-2-2-2-2-2-2-2-2-2-5-0---2---2-2-2-2-2-2-0---0---5-4-0----|
     1 + 2 + 3 + 4 + 1 + 2 + 3 + 4 + 1 + 2 + 3 + 4 + 1 + 2 + 3 + 4 +

1:21 Pre Chorus
F#|-----------------------------------------------------------------|
C#|-----------------------------------------------------------------|
G#|-0---0-0-0-3-3---0---0-0-0-3-----0---0-0-0-3-3---0---0-0-0-3-----|
C#|-----------------------------5-------------------------------5---|
    1 + 2 + 3 + 4 + 1 + 2 + 3 + 4 + 1 + 2 + 3 + 4 + 1 + 2 + 3 + 4 +

F#|-----------------------------------------------------------------|
C#|-----------------------------------------------------------------|
G#|-2---2-2-2-5-5---2---2-2-2-5-0---2-2-2-2-2-5-5-5-2-2-2-2-2-5-0---|
C#|-----------------------------------------------------------------|
    1 + 2 + 3 + 4 + 1 + 2 + 3 + 4 + 1 + 2 + 3 + 4 + 1 + 2 + 3 + 4 +

1:37 Chorus
F#|-------------------------------------------------------------------|
C#|o-----------------------------------------------------------------o|
G#|o---------------------------------3---3---3-0-3-5---5-5-5---------o|
C#|--2---2---2-0-2-0-0-0-0-0-5-4-0---------------------------5-4-0----|
     1 + 2 + 3 + 4 + 1 + 2 + 3 + 4 + 1 + 2 + 3 + 4 + 1 + 2 + 3 + 4 +

1:53 Interlude
F#|-----------------------------------------------------------------|
C#|-----------------------------------------------------------------|
G#|-----------------------------------------------------------------|
C#|-2---4---5---2-2-2-2-2-2-2-2-2-2-2---4---5---0-0---------5-4-0---|
    1 + 2 + 3 + 4 + 1 + 2 + 3 + 4 + 1 + 2 + 3 + 4 + 1 + 2 + 3 + 4 +

2:02 Verse
F#|-------------------------------------------------------------------|
C#|o-----------------------------------------------------------------o|
G#|o-----------------------------------------------------------------o|
C#|--2---2-2-2-2-2-2-2-2-2-2-2-5-0---2---2-2-2-2-2-2-0---0---5-4-0----|
     1 + 2 + 3 + 4 + 1 + 2 + 3 + 4 + 1 + 2 + 3 + 4 + 1 + 2 + 3 + 4 +

2:18 Pre Chorus
F#|-----------------------------------------------------------------|
C#|-----------------------------------------------------------------|
G#|-0---0-0-0-3-3---0---0-0-0-3-----0---0-0-0-3-3---0---0-0-0-3-----|
C#|-----------------------------5-------------------------------5---|
    1 + 2 + 3 + 4 + 1 + 2 + 3 + 4 + 1 + 2 + 3 + 4 + 1 + 2 + 3 + 4 +

F#|-----------------------------------------------------------------|
C#|-----------------------------------------------------------------|
G#|-2---2-2-2-5-5---2---2-2-2-5-0---2-2-2-2-2-5-5-5-2-2-2-2-2-5-0---|
C#|-----------------------------------------------------------------|
    1 + 2 + 3 + 4 + 1 + 2 + 3 + 4 + 1 + 2 + 3 + 4 + 1 + 2 + 3 + 4 +

2:34 Chorus
F#|-------------------------------------------------------------------|
C#|o-----------------------------------------------------------------o|
G#|o---------------------------------3---3---3-0-3-5---5-5-5---------o|
C#|--2---2---2-0-2-0-0-0-0-0-5-4-0---------------------------5-4-0----|
     1 + 2 + 3 + 4 + 1 + 2 + 3 + 4 + 1 + 2 + 3 + 4 + 1 + 2 + 3 + 4 +

2:50 Interlude
F#|-----------------------------------------------------------------|
C#|-----------------------------------------------------------------|
G#|-----------------------------------------------------------------|
C#|-2---4---5---2-2-2-2-2-2-2-2-2-2-2---4---5---0-0---------5-4-0---|
    1 + 2 + 3 + 4 + 1 + 2 + 3 + 4 + 1 + 2 + 3 + 4 + 1 + 2 + 3 + 4 +

2:58 Solo
F#|-----------------------------------------------------------------|
C#|-----------------------------------------------------------------|
G#|-------------------------2-2-2-2-------------------------2-2-2-2-|
C#|-2-2-2-2-2-2-2-2-0-0-0-0---------2-2-2-2-2-2-2-2-0-0-0-0---------|
    1 + 2 + 3 + 4 + 1 + 2 + 3 + 4 + 1 + 2 + 3 + 4 + 1 + 2 + 3 + 4 +

F#|-----------------------------------------------------------------|
C#|-----------------------------------------------------------------|
G#|-----------------0-0-0-0-------------------------2-2-2-2-2-2-2-2-|
C#|-2-2-2-2-2-2-2-2---------4-4-4-4-5-5-5-5-4-4-4-4-----------------|
    1 + 2 + 3 + 4 + 1 + 2 + 3 + 4 + 1 + 2 + 3 + 4 + 1 + 2 + 3 + 4 +

3:15
F#|-----------------------------------------------------------------|
C#|-----------------------------------------------------------------|
G#|-----------------2-2-2-2-2-2-2-2-0-0-0-0-0-0-0-0-----------------|
C#|-2-2-2-2-2-2-2-2---------------------------------2-2-2-2-2-2-2-2-|
    1 + 2 + 3 + 4 + 1 + 2 + 3 + 4 + 1 + 2 + 3 + 4 + 1 + 2 + 3 + 4 +

F#|-----------------------------------------------------------------|
C#|-----------------------------------------------------------------|
G#|-2-2-2-2-2-2-2-2-----------------2-2-2-2-2-2-2-2-2---------------|
C#|-----------------2-2-2-2-2-2-2-2-------------------------5-4-0---|
    1 + 2 + 3 + 4 + 1 + 2 + 3 + 4 + 1 + 2 + 3 + 4 + 1 + 2 + 3 + 4 +

F#|-----------------------------------------------------------------|
C#|-----------------------------------------------------------------|
G#|-----------------2-2-2-2-2-2-2-2-0-0-0-0-0-0-0-0-----------------|
C#|-2-2-2-2-2-2-2-2---------------------------------2-2-2-2-2-2-2-2-|
    1 + 2 + 3 + 4 + 1 + 2 + 3 + 4 + 1 + 2 + 3 + 4 + 1 + 2 + 3 + 4 +

F#|-----------------------------------------------------------------|
C#|---------------------------------1-------4---------------2---4---|
G#|-2-2-2-2-2-2-2-2---------------------------------2---------------|
C#|-----------------2-2-2-2-2-2-2-2---------------------------------|
    1 + 2 + 3 + 4 + 1 + 2 + 3 + 4 + 1 + 2 + 3 + 4 + 1 + 2 + 3 + 4 +

F#|-----------------------------------------------------------------|
C#|-----------------------------------------------------------------|
G#|-----------------------------------------------------------------|
C#|-2---------------------------------------------------------------|
    1 + 2 + 3 + 4 + 1 + 2 + 3 + 4 + 1 + 2 + 3 + 4 + 1 + 2 + 3 + 4 +

3:55 Interlude
F#|-----------------------------------------------------------------|
C#|-----------------------------------------------------------------|
G#|-----------------------------------------------------------------|
C#|-2---4---5-----------------------2---4---5-----------------------|
    1 + 2 + 3 + 4 + 1 + 2 + 3 + 4 + 1 + 2 + 3 + 4 + 1 + 2 + 3 + 4 +

F#|---------------------------------------------------------------------------------|
C#|---------------------------------------------------------------------------------|
G#|---------------------------------------------------------------------------------|
C#|-2---4---5-----------------------2---4---5---0-0-----------------0-0-0-0-0-0-0-0-|
    1 + 2 + 3 + 4 + 1 + 2 + 3 + 4 + 1 + 2 + 3 + 4 + 1 + 2 + 3 + 4 + 1 + 2 + 3 + 4 +

4:14 Chorus
F#|-------------------------------------------------------------------|
C#|o-----------------------------------------------------------------o|
G#|o---------------------------------3---3---3-0-3-5---5-5-5---------o|
C#|--2---2---2-0-2-0-0-0-0-0-5-4-0---------------------------5-4-0----|
     1 + 2 + 3 + 4 + 1 + 2 + 3 + 4 + 1 + 2 + 3 + 4 + 1 + 2 + 3 + 4 +

F#|-----------------------------------------------------------------|
C#|-----------------------------------------------------------------|
G#|---------------------------------3---3---3-0-3-5---5-5-5---------|
C#|-----2---2-0-2-0-0-0-0-0-5-4-0---------------------------5-4-0---|
    1 + 2 + 3 + 4 + 1 + 2 + 3 + 4 + 1 + 2 + 3 + 4 + 1 + 2 + 3 + 4 +

F#|-----------------------------------------------------------------|
C#|-----------------------------------------------------------------|
G#|---------------------------------3---3---3-0-3-5---5-5-5---------|
C#|-2---2---2-0-2-0-0-0-0-0-5-4-0---------------------------5-4-0---|
    1 + 2 + 3 + 4 + 1 + 2 + 3 + 4 + 1 + 2 + 3 + 4 + 1 + 2 + 3 + 4 +

Outro 4:46
F#|-----------------------------------------------------------------|
C#|-----------------------------------------------------------------|
G#|-----------------------------------------------------------------|
C#|-2---4---5---2-2-2-2-2-2-2-2-2-2-2---4---5---0-0-----------------|
    1 + 2 + 3 + 4 + 1 + 2 + 3 + 4 + 1 + 2 + 3 + 4 + 1 + 2 + 3 + 4 +
Tabbed by Dave Vucko
Suggest correction
What's this?
You can suggest a correction to this tab. Community and Mods will review your correction and vote to approve or reject it.
comments
print report bad tab
guest
You may want to rate the tab now too:
select rating
Please do not post tabs as comments. Select "correction" instead!