Oops, an error
Loading. Please wait.
We have an official Hail To The King tab made by UG professional guitarists. Check out the tab »
×
4,929 views 9 this week
no commentswrite comment
1 2 3 4 5
x 4
add to favorites
×
Save as Personal and add changes to this tab that will be seen only by you. Learn more ›
×
You can save this tab as Personal to edit and correct it or add notes. All changes will be seen only by you. Learn more »
launch autoscroll
font size
0
reset
guitar tuner
backing track
0:00
0:00
edit
Autoscroll
slow
fast
+/-
esc
set tempo
stop
My first tab, but it all sounds right to me.
PM me with questions, comments, concerns.

HAIL TO THE KING


Play this section twice.

F#|-------------------------|------------------------|
C#|-------------------------|------------------------|
G#|-------------------------|------------------------|
C#|--2------------5--0--2---|--------------5--0--2---|

-------------------------|----------------------------|
-------------------------|----------------------------|
-------------------------|----------------------------|
--------------5----------|--0-----------5--4--0-------|

[VERSE] Vocals in, play twice.

----------------------------|----------------------------|
----------------------------|----------------------------|
----------------------------|----------------------------|
--2-----2--2--2--2--2--2----|--2--2--2--2--2--5--0-------|

----------------------------|----------------------------|
----------------------------|----------------------------|
----------------------------|----------------------------|
--2-----2--2--2--2--2--2----|--0-----------5--4--0-------|

    Play twice

--------------------------|--------------------------|
--------------------------|--------------------------|
--------------------------|--------------------------|
--7------------10---------|--7------------10-5-------|

    Play twice

--------------------------|--------------------------|
--------------------------|--------------------------|
--------------------------|--------------------------|
--9------------12---------|--9------------12-7-------|

[Chorus] play twice

---------------------------|---------------------------|
---------------------------|---------------------------|
---------------------------|---------------------------|
--2-----2-----2--0--2--0---|-------------5--4--0-------|

---------------------------|----------------------------|
---------------------------|----------------------------|
--3-----3-----3--0--3--5---|-----5--5--5----------------|
---------------------------|--------------5--4--0-------|

[Post chorus]

----------------------------|----------------------------|
----------------------------|----------------------------|
----------------------------|----------------------------|
--2-----4-----5-----2--2----|--2--2--2--2--2--2--2--2----|

---------------------------|---------------------------|
---------------------------|---------------------------|
---------------------------|---------------------------|
--2-----4-----5--------0---|-------------5--4--0-------|

[VERSE]
[CHORUS]
[POST CHORUS]

[SOLO]

----------------------------|----------------------------|
----------------------------|----------------------------|
----------------------------|--------------2--2--2--2----|
--2--2--2--2--2--2--2--2----|--0--0--0--0----------------|

----------------------------|----------------------------|
----------------------------|----------------------------|
----------------------------|--------------2--2--2--2----|
--2--2--2--2--2--2--2--2----|--0--0--0--0----------------|

----------------------------|----------------------------|
----------------------------|----------------------------|
----------------------------|--0--0--0--0----------------|
--2--2--2--2--2--2--2--2----|--------------4--4--4--4----|

----------------------------|----------------------------|
----------------------------|----------------------------|
----------------------------|--2--2--2--2--2--2--2--2----|
--5--5--5--5--4--4--4--4----|----------------------------|

----------------------------|----------------------------|
----------------------------|----------------------------|
----------------------------|--2--2--2--2--2--2--2--2----|
--2--2--2--2--2--2--2--2----|----------------------------|

----------------------------|----------------------------|
----------------------------|----------------------------|
--0--0--0--0--0--0--0--0----|--2--2--2--2--2--2--2--2----|
----------------------------|----------------------------|

----------------------------|----------------------------|
----------------------------|----------------------------|
--2--2--2--2--2--2--2--2----|----------------------------|
----------------------------|--2--2--2--2--2--2--2--2----|

----------------------------|----------------------------|
----------------------------|----------------------------|
--2--2--2--2--2--2--2--2----|--2-------------------------|
----------------------------|----------------------------|

----------------------------|----------------------------|
----------------------------|----------------------------|
----------------------------|--2--2--2--2--2--2--2--2----|
--2--2--2--2--2--2--2--2----|----------------------------|

----------------------------|----------------------------|
----------------------------|----------------------------|
--0--0--0--0--0--0--0--0----|--2--2--2--2--2--2--2--2----|
----------------------------|----------------------------|

----------------------------|----------------------------|
----------------------------|----------------------------|
--2--2--2--2--2--2--2--2----|----------------------------|
----------------------------|--2--2--2--2--2--2--2--2----|

----------|----------------|-------|
----------|----------------|-------|
--6//9----|--2-----6--9----|-------|
----------|----------------|--2----|

There's a taste of fear...

----------------|    |----------------------------|
----------------|    |----------------------------|
----------------| x3 |----------------------------|
--2--4--5-------|    |--2-----4-----5--------0----|

[CHORUS x2]

[POST CHORUS]

----------------------------|----------------------------|
----------------------------|----------------------------|
----------------------------|----------------------------|
--2-----4-----5-----2--2----|--2--2--2--2--2--2--2--2----|

---------------------------|
---------------------------|
---------------------------|
--2-----4-----5--------0---|
Suggest correction
Creating personal tab
Creating personal tab
You can edit any tab online and save it as your Personal.

You can edit, replace or remove any tab part or add personal notes – all changes will be seen only by you.

Personal tabs can be accessed anytime from any device, even offline.
Learn more »
comments
print report bad tab
guest
You may want to rate the tab now too:
select rating
Wanna post a correction for this tab? Suggest correction