Oops, an error
Loading. Please wait.
We have an official Hail To The King tab made by UG professional guitarists. Check out the tab »
×
2,211 views 1 this week
3 commentsread comments
1 2 3 4 5
1 last vote to show rating
add to favorites
×
Save as Personal and add changes to this tab that will be seen only by you. Learn more ›
×
You can save this tab as Personal to edit and correct it or add notes. All changes will be seen only by you. Learn more »
launch autoscroll
font size
0
reset
guitar tuner
backing track
0:00
0:00
edit
Autoscroll
slow
fast
+/-
esc
set tempo
stop

Intro - nothing

Main Riff - X2
F#|-----------------|----------------|------------|--------------|
C#|-----------------|----------------|------------|--------------|
G#|-----------------|----------------|------------|--------------|
C#|-2--2--2-5-0-2~--|---2--2-5-0-2~--|---2--2-5-5-|--0--0--5-4-0-|

Verse 1 - X2
F#|----------------|----------------|----------------|-----------|
C#|----------------|----------------|----------------|-----------|
G#|----------------|----------------|----------------|-----------|
C#|-2--2-2-2-2-2-2-|-2-2-2-2-2-5-0--|-2--2-2-2-2-2-2-|-0---5-4-0-|

Pre Chorus -
F#|--------------|--------------|-------------|--------------|
C#|--------------|--------------|-------------|--------------|
G#|-0--0--0-3-3--|-0--0-0-0-3---|-0--0-0-0-3--|-0--0-0-0-3---|
C#|--------------|------------5-|-------------|------------5-|

F#|--------------|--------------|-------------|--------------|
C#|--------------|--------------|-------------|--------------|
G#|-2--2--2-5-5--|-2--2-2-2-5---|-2--2-2-2-5--|-2--2-2-2-5---|
C#|--------------|------------7-|-------------|------------7-|

Chorus 1 -
F#|---------------|--------------|-----------------|----------------|X2
C#|---------------|--------------|-----------------|----------------|X2
G#|---------------|--------------|-3--3--3-0-3-5~--|--5-5-5---------|X2
C#|-2---2-0-2-0~--|--0-0-0-5-4-0-|-----------------|--------5-4-0---|X2

F#|--------------|-----------------|---------------|--------------|
C#|--------------|-----------------|---------------|--------------|
G#|--------------|-----------------|---------------|--------------|
C#|-2--4--5--2-2-|-2-2-2-2-2-2-2-2-|-2--4--5---0~--|--0-0-0-5-4-0-|

Verse 2 - X2
F#|----------------|----------------|----------------|-----------|
C#|----------------|----------------|----------------|-----------|
G#|----------------|----------------|----------------|-----------|
C#|-2--2-2-2-2-2-2-|-2-2-2-2-2-5-0--|-2--2-2-2-2-2-2-|-0---5-4-0-|

Pre Chorus 2 -
F#|--------------|--------------|-------------|--------------|
C#|--------------|--------------|-------------|--------------|
G#|-0--0--0-3-3--|-0--0-0-0-3---|-0--0-0-0-3--|-0--0-0-0-3---|
C#|--------------|------------5-|-------------|------------5-|

F#|--------------|--------------|-------------|--------------|
C#|--------------|--------------|-------------|--------------|
G#|-2--2--2-5-5--|-2--2-2-2-5---|-2--2-2-2-5--|-2--2-2-2-5---|
C#|--------------|------------7-|-------------|------------7-|

Chorus 2 -
F#|---------------|--------------|-----------------|----------------|X2
C#|---------------|--------------|-----------------|----------------|X2
G#|---------------|--------------|-3--3--3-0-3-5~--|--5-5-5---------|X2
C#|-2---2-0-2-0~--|--0-0-0-5-4-0-|-----------------|--------5-4-0---|X2

F#|--------------|-----------------|---------------|--------------|
C#|--------------|-----------------|---------------|--------------|
G#|--------------|-----------------|---------------|--------------|
C#|-2--4--5--2-2-|-2-2-2-2-2-2-2-2-|-2--4--5---0~--|--0-0-0-5-4-0-|

Pre Solo -
F#|---------------|-----------------|---------------|-----------------|
C#|---------------|-----------------|---------------|-----------------|
G#|---------------|---------2-2-2-2-|---------------|---------2-2-2-2-|
C#|-2--2--2-2-2-2-|-0-0-0-0---------|-2--2--2-2-2-2-|-0-0-0-0---------|

F#|---------------|-----------------|-----------------|-----|
C#|---------------|-----------------|-----------------|-----|
G#|---------------|-----------------|-----------------|-2---|
C#|-2--2--2-2-2-2-|-7-7-7-7-4-4-4-4-|-5-5-5-5-4-4-4-4-|-----|

Solo -
F#|----------------|-----------------|-----------------|-----------------|
C#|----------------|-----------------|-----------------|-----------------|
G#|----------------|-2-2-2-2-2-2-2-2-|-0-0-0-0-0-0-0-0-|-----------------|
C#|-2--2-2-2-2-2-2-|-----------------|-----------------|-2-2-2-2-2-2-2-2-|

F#|-----------------|-----------------|-----------------|-----------|
C#|-----------------|-----------------|-----------------|-----------|
G#|-2-2-2-2-2-2-2-2-|-----------------|-2-2-2-2-2-2-2-2-|-2---------|
C#|-----------------|-2-2-2-2-2-2-2-2-|-----------------|-----5-4-2-|

F#|-----------------|-----------------|-----------------|-----------------|
C#|-----------------|-----------------|-----------------|-----------------|
G#|-----------------|-2-2-2-2-2-2-2-2-|-0-0-0-0-0-0-0-0-|-----------------|
C#|-2-2-2-2-2-2-2-2-|-----------------|-----------------|-2-2-2-2-2-2-2-2-|

F#|-----------------|-----------------|---------|----------|-------|
C#|-----------------|-----------------|---------|----------|-------|
G#|-2-2-2-2-2-2-2-2-|-----------------|-6---9---|-----6--9-|-------|
C#|-----------------|-2-2-2-2-2-2-2-2-|---------|-9--------|-2~~---|

Bridge - after holding that last note in the solo...
F#|--------------|-------------|X2|----------------|-----------------|
C#|--------------|-------------|X2|----------------|-----------------|
G#|--------------|-------------|X2|----------------|-----------------|
C#|-2--4--5--X-X-|---X-X---X-X-|X2|-2--4--5--0-0~~-|-0-0-0-0-0-0-0-0-|

Chorus 3 - X4
F#|---------------|--------------|-----------------|--------------|
C#|---------------|--------------|-----------------|--------------|
G#|---------------|--------------|-3--3--3-0-3-5~--|--5-5-5-------|
C#|-2---2-0-2-0~--|--0-0-0-5-4-0-|-----------------|--------5-4-0-|

Outro -
F#|--------------|-----------------|---------------|
C#|--------------|-----------------|---------------|
G#|--------------|-----------------|---------------|
C#|-2--4--5--2-2-|-2-2-2-2-2-2-2-2-|-2--4--5---0~--|

Thats it, enjoy, apologies for length but i feel this sounds right with the sonG#.

            
            
Suggest correction
Creating personal tab
Creating personal tab
You can edit any tab online and save it as your Personal.

You can edit, replace or remove any tab part or add personal notes – all changes will be seen only by you.

Personal tabs can be accessed anytime from any device, even offline.
Learn more »
Give kudos to tab author, rate the tab!
1 2 3 4 5
comments
print report bad tab
3 comments total.
0 reply
ztaxig 10 Feb 17, 2014 02:40 PM

What time does bass come in?

0 reply
DyeDrop 32 Feb 26, 2014 05:54 AM

49 seconds into the song

+1 reply
DyeDrop 32 Feb 26, 2014 05:56 AM

the tuning is incorrect. it's supposed to be in drop C# (c#,g#,c#,f#)

guest
You may want to rate the tab now too:
select rating
Wanna post a correction for this tab? Suggest correction