Oops, an error
Loading. Please wait.
We have an official Hail To The King tab made by UG professional guitarists. Check out the tab »
×
2,791 views 3 this week
no commentswrite comment
1 2 3 4 5
x 3
add to favorites
×
Save as Personal and add changes to this tab that will be seen only by you. Learn more ›
×
You can save this tab as Personal to edit and correct it or add notes. All changes will be seen only by you. Learn more »
launch autoscroll
font size
0
reset
how to read this tab
guitar tuner
backing track
0:00
0:00
edit
Autoscroll
slow
fast
+/-
esc
set tempo
stop
Hail to the king, great song by a great band with two great guitarists 
Hope you love this tab

b   : bend 
r   : release (after a bend)
h   : hammer-on
p   : pull-off                                 
\   : slide down               
/   : slide up                 
~   : vibrato
x   : mute note
pm  : palm mute

Tuning: Drop Db (C#)


Intro:

Part 1: (x2)


Lead Guitar:

eb|-12p0-0-14p0-0-15p0-0-14p0-0-14p0-0-0-|
Bb|--------------------------------------|
Gb|--------------------------------------|
Db|--------------------------------------|
Ab|--------------------------------------|
Db|--------------------------------------|

eB|-12p0-0-14p0-0-15p0-0-14p0-0-14p0-0-0-|
Bb|--------------------------------------|
Gb|--------------------------------------|
Db|--------------------------------------|
Ab|--------------------------------------|
Db|--------------------------------------|

eb|-12p0-0-14p0-0-15p0-0-14p0-0-14p0-0-0-|
Bb|--------------------------------------|
Gb|--------------------------------------|
Db|--------------------------------------|
Ab|--------------------------------------|
Db|--------------------------------------|

eb|-17p12p0-17p12p0-15p12p0-15p12p0-14p0-10-14-|
Bb|--------------------------------------------|
Gb|--------------------------------------------|
Db|--------------------------------------------|
Ab|--------------------------------------------|
Db|--------------------------------------------|


Part 2: (x4)

Lead Guitar:

eb|-12p0-0-14p0-0-15p0-0-14p0-0-14p0-0-0-|
Bb|--------------------------------------|
Gb|--------------------------------------|
Db|--------------------------------------|
Ab|--------------------------------------|
Db|--------------------------------------|

Eb|-12p0-0-14p0-0-15p0-0-14p0-0-14p0-0-0-|
Bb|--------------------------------------|
Gb|--------------------------------------|
Db|--------------------------------------|
Ab|--------------------------------------|
Db|--------------------------------------|


Rhythm Guitar:

eb|--------------------------------------|
Bb|--------------------------------------|
Gb|--------------------------------------|
Db|--------------------------------------|
Ab|-2--------4--------5--------x---x-----|
Db|-2--------4--------5--------x---x-----|

eb|--------------------------------------|
Bb|--------------------------------------|
Gb|--------------------------------------|
Db|--------------------------------------|
Ab|-----------x---x------------x---x-----|
Db|-----------x---x------------x---x-----|


Lead Guitar:

eb|-12p0-0-14p0-0-15p0-0-14p0-0-14p0-0-0-|
Bb|--------------------------------------|
Gb|--------------------------------------|
Db|--------------------------------------|
Ab|--------------------------------------|
Db|--------------------------------------|

eb|-17p12p0-17p12p0-15p12p0-15p12p0-14p0-10-14-|
Bb|--------------------------------------------|
Gb|--------------------------------------------|
Db|--------------------------------------------|
Ab|--------------------------------------------|
Db|--------------------------------------------|


Rhythm Guitar:

eb|--------------------------------------|
Bb|--------------------------------------|
Gb|--------------------------------------|
Db|--------------------------------------|
Ab|-2--------4--------5--------x---x-----|
Db|-2--------4--------5--------x---x-----|

eb|-----------------------------------------|
Bb|-----------------------------------------|
Gb|-----------------------------------------|
Db|-----------------------------------------|
Ab|----------x---x-------------x---x--------|
Db|----------x---x-------------x---x--------|


4th time, rhythm guitar plays:

eb|--------------------------------------|
Bb|--------------------------------------|
Gb|--------------------------------------|
Db|--------------------------------------|
Ab|-2--------4--------5--------x---0-----| 
Db|-2--------4--------5--------x---0-----| 

eb|--------------------------------------------|
Bb|--------------------------------------------|
Gb|--------------------------------------------|
Db|--------------------------------------------|
Ab|--------------------------------------------|
Db|---------------------5----4----0------------|


Part 3: (x2)

Lead Guitar:

eb|---------------------------------|---------------------------------|
Bb|-5h8-7p0-5h8-7p0-5h8-7p0-5h8-7p0-|-5h8-7p0-5h8-7p0-5h8-7p0-5h8-7p0-|
Gb|---------------------------------|---------------------------------| 
Db|---------------------------------|---------------------------------|
Ab|---------------------------------|---------------------------------|
Db|---------------------------------|---------------------------------|


Rhythm Guitar:

eb|---------------------------------|---------------------------------|
Bb|---------------------------------|---------------------------------|
Gb|---------------------------------|---------------------------------| 
Db|---------------------------------|---------------------------------|
Ab|-2-------------------5---0---2---|---------------------5---0---2---|
Db|-2-------------------5---0---2---|---------------------5---0---2---|


Lead Guitar:

eb|---------------------------------|---------------------------------|
Bb|-5h8-7p0-5h8-7p0-5h8-7p0-5h8-7p0-|-3h5-3p0-3h5-3p0-3h5-3p0-3h5-3p0-|
Gb|---------------------------------|---------------------------------| 
Db|---------------------------------|---------------------------------|
Ab|---------------------------------|---------------------------------|
Db|---------------------------------|---------------------------------|


Rhythm Guitar:

eb|---------------------------------|---------------------------------|
Bb|---------------------------------|---------------------------------|
Gb|---------------------------------|---------------------------------| 
Db|---------------------------------|---------------------------------|
Ab|---------------------5---4-------|-0---------------5---4---0-------|
Db|---------------------5---4-------|-0---------------5---4---0-------|


Verse 1: (x2)

Lead Guitar:

eb|---------------------------------|---------------------------------|
Bb|-5h8-7p0-5h8-7p0-5h8-7p0-5h8-7p0-|-5h8-7p0-5h8-7p0-5h8-7p0-5h8-7p0-|
Gb|---------------------------------|---------------------------------| 
Db|---------------------------------|---------------------------------|
Ab|---------------------------------|---------------------------------|
Db|---------------------------------|---------------------------------|


Rhythm Guitar:

eb|---------------------------------------------|
Bb|---------------------------------------------|
Gb|---------------------------------------------|
Db|---------------------------------------------|
Ab|-2-------2pm---2pm---2pm---2pm---2pm---2pm---|
Db|-2-------2pm---2pm---2pm---2pm---2pm---2pm---|

eb|---------------------------------------------|
Bb|---------------------------------------------|
Gb|---------------------------------------------|
Db|---------------------------------------------|
Ab|-2pm---2pm---2pm---2pm---2pm---5---0---------|
Db|-2pm---2pm---2pm---2pm---2pm---5---0---------|


Lead Guitar:

eb|---------------------------------|-----------------------------------|
Bb|-5h8-7p0-5h8-7p0-5h8-7p0-5h8-7p0-|-7h10-7p0-7h10-7p0-3h5-3p0-3h5-3p0-|
Gb|---------------------------------|-----------------------------------| 
Db|---------------------------------|-----------------------------------|
Ab|---------------------------------|-----------------------------------|
Db|---------------------------------|-----------------------------------|


Rhythm Guitar:

eb|---------------------------------------------|
Bb|---------------------------------------------|
Gb|---------------------------------------------| 
Db|---------------------------------------------|
Ab|-2-------2pm---2pm---2pm---2pm---2pm---2pm---|
Db|-2-------2pm---2pm---2pm---2pm---2pm---2pm---|

eb|-----------------------------------|
Bb|-----------------------------------|
Gb|-----------------------------------|
Db|-----------------------------------|
Ab|-0---------------------------------|
Db|-0-----------------5---4---0-------|


Bridge:

Lead Guitar:

eb|---------------------------------------------|
Bb|-10h13-10p0-10h13-10p0-10h13-10p0-10h13-10p0-|
Gb|---------------------------------------------| 
Db|---------------------------------------------|
Ab|---------------------------------------------|
Db|---------------------------------------------|


Rhythm Guitar:

eb|---------------------------------------------|
Bb|---------------------------------------------|
Gb|---------------------------------------------| 
Db|---------------------------------------------|
Ab|-7---------------------------10--------------|
Db|-7---------------------------10--------------|


Lead Guitar:

eb|---------------------------------------------|
Bb|-10h13-10p0-10h13-10p0-10h13-10p0-10h13-10p0-|
Gb|---------------------------------------------| 
Db|---------------------------------------------|
Ab|---------------------------------------------|
Db|---------------------------------------------|


Rhythm Guitar:

eb|---------------------------------------------|
Bb|---------------------------------------------|
Gb|---------------------------------------------| 
Db|---------------------------------------------|
Ab|-7---------------------------10---5----------|
Db|-7---------------------------10---5----------|


Lead Guitar:

eb|---------------------------------------------|
Bb|-10h13-10p0-10h13-10p0-10h13-10p0-10h13-10p0-|
Gb|---------------------------------------------| 
Db|---------------------------------------------|
Ab|---------------------------------------------|
Db|---------------------------------------------|


Rhythm Guitar:

eb|---------------------------------------------|
Bb|---------------------------------------------|
Gb|---------------------------------------------| 
Db|---------------------------------------------|
Ab|-7---------------------------10--------------|
Db|-7---------------------------10--------------|


Lead Guitar:

eb|---------------------------------------------|
Bb|-10h13-10p0-10h13-10p0-10h13-10p0-10h13-10p0-|
Gb|---------------------------------------------| 
Db|---------------------------------------------|
Ab|---------------------------------------------|
Db|---------------------------------------------|


Rhythm Guitar:

eb|---------------------------------------------|
Bb|---------------------------------------------|
Gb|---------------------------------------------| 
Db|---------------------------------------------|
Ab|-7---------------------------10---5----------|
Db|-7---------------------------10---5----------|


Lead Guitar:

eb|---------------------------------------------|
Bb|-12h15-12p0-12h15-12p0-12h15-12p0-12h15-12p0-|
Gb|---------------------------------------------| 
Db|---------------------------------------------|
Ab|---------------------------------------------|
Db|---------------------------------------------|


Rhythm Guitar:

eb|---------------------------------------------|
Bb|---------------------------------------------|
Gb|---------------------------------------------| 
Db|---------------------------------------------|
Ab|-9---------------------------12--------------|
Db|-9---------------------------12--------------|


Lead Guitar:

eb|---------------------------------------------|
Bb|-12h15-12p0-12h15-12p0-12h15-12p0-12h15-12p0-|
Gb|---------------------------------------------| 
Db|---------------------------------------------|
Ab|---------------------------------------------|
Db|---------------------------------------------|


Rhythm Guitar:

eb|---------------------------------------------|
Bb|---------------------------------------------|
Gb|---------------------------------------------| 
Db|---------------------------------------------|
Ab|-9---------------------------12---7----------|
Db|-9---------------------------12---7----------|


Lead Guitar:

eb|---------------------------------------------|
Bb|-12h15-12p0-12h15-12p0-12h15-12p0-12h15-12p0-|
Gb|---------------------------------------------| 
Db|---------------------------------------------|
Ab|---------------------------------------------|
Db|---------------------------------------------|


Rhythm Guitar:

eb|---------------------------------------------|
Bb|---------------------------------------------|
Gb|---------------------------------------------| 
Db|---------------------------------------------|
Ab|-9---------------------------12--------------|
Db|-9---------------------------12--------------|


Lead Guitar:

eb|---------------------------------------------|
Bb|-12h15-12p0-12h15-12p0-12h15-12p0-12h15-12p0-|
Gb|---------------------------------------------| 
Db|---------------------------------------------|
Ab|---------------------------------------------|
Db|---------------------------------------------|


Rhythm Guitar:

eb|---------------------------------------------|
Bb|---------------------------------------------|
Gb|---------------------------------------------| 
Db|---------------------------------------------|
Ab|-9-------------------------------------------|
Db|-9-------------------------------------------|


Chorus: (x2)

Lead Guitar:

eb|-------(/7)-(3)-(5)(/7)-----(5)--|---------------------------------|
Bb|--------/8---5---7--/8-------7---|---------------------------------|
Gb|---------------------------------|---------------------------------| 
Db|---------------------------------|---------------------------------|
Ab|---------------------------------|---------------------------------|
Db|---------------------------------|---------------------------------|


Rhythm Guitar:

eb|---------------------------------|---------------------------------|
Bb|---------------------------------|---------------------------------|
Gb|---------------------------------|---------------------------------| 
Db|---------------------------------|---------------------------------|
Ab|-2-------------------0---2---0---|---------------------------------|
Db|-2-------------------0---2---0---|-----------------5---4---0-------|


Lead Guitar:

eb|-------(/7)-(3)-(5)(/7)-----(5)--|---------------------------------|
Bb|--------/8---5---7--/8-------7---|---------------------------------|
Gb|---------------------------------|---------------------------------| 
Db|---------------------------------|---------------------------------|
Ab|---------------------------------|---------------------------------|
Db|---------------------------------|---------------------------------|


Rhythm Guitar:

eb|---------------------------------|---------------------------------|
Bb|---------------------------------|---------------------------------|
Gb|-5-------------------------------|---------------------------------| 
Db|-5-----------------------5-/-7---|---------------------------------|
Ab|-3-------------------0---3-/-5---|---------------------------------|
Db|---------------------------------|-----------------5---4---0-------|


Post chorus:

Lead Guitar:

eb|---------------------------------|---------------------------------|
Bb|-5-0-0-7-0-0-8-0-0-7-0-0-5-0-5-0-|-5-0-0-7-0-0-8-0-0-7-0-0-5-0-5-0-|
Gb|---------------------------------|---------------------------------| 
Db|---------------------------------|---------------------------------|
Ab|---------------------------------|---------------------------------|
Db|---------------------------------|---------------------------------|


Rhythm Guitar:

eb|---------------------------------|---------------------------------|
Bb|---------------------------------|---------------------------------|
Gb|---------------------------------|---------------------------------| 
Db|---------------------------------|---------------------------------|
Ab|-2-------4-------5-------x---x---|----------x---x----------x---x---|
Db|-2-------4-------5-------x---x---|----------x---x----------x---x---|


Lead Guitar:

eb|---------------------------------|---------------------------------|
Bb|-5-0-0-7-0-0-8-0-0-7-0-0-5-0/10--|---------------------------------|
Gb|---------------------------------|---------------------------------| 
Db|---------------------------------|---------------------------------|
Ab|---------------------------------|---------------------------------|
Db|---------------------------------|---------------------------------|


Rhythm Guitar:

eb|---------------------------------|---------------------------------|
Bb|---------------------------------|---------------------------------|
Gb|---------------------------------|---------------------------------| 
Db|---------------------------------|---------------------------------|
Ab|-2-------4-------5-------x---0---|---------------------------------|
Db|-2-------4-------5-------x---0---|-----------------5---4---0-------|


Verse 2 (same as Verse 1)

Bridge

Chorus

Post chorus


Guitar Solo:

Part 1:

Lead Guitar:

eb|---------------------------------|-----------------------------------|
Bb|-5h8p5p0-5h8p5p0-5h8p5p0-5h8p5p0-|-7h10p7p0-7h10p7p0-4h7p4p0-4h7p4p0-|
Gb|---------------------------------|-----------------------------------| 
Db|---------------------------------|-----------------------------------|
Ab|---------------------------------|-----------------------------------|
Db|---------------------------------|-----------------------------------|


Rhythm Guitar:

eb|---------------------------------|-----------------------------------|
Bb|---------------------------------|-----------------------------------|
Gb|---------------------------------|-------------------4---------------| 
Db|---------------------------------|-------------------4---------------|
Ab|-2-------------------------------|-0-----------------2---------------|
Db|-2-------------------------------|-0---------------------------------|


Lead Guitar:

eb|---------------------------------|-----------------------------------|
Bb|-5h8p5p0-5h8p5p0-5h8p5p0-5h8p5p0-|-7h10p7p0-7h10p7p0-4h7p4p0-4h7p4p0-|
Gb|---------------------------------|-----------------------------------| 
Db|---------------------------------|-----------------------------------|
Ab|---------------------------------|-----------------------------------|
Db|---------------------------------|-----------------------------------|


Rhythm Guitar:

eb|---------------------------------|-----------------------------------|
Bb|---------------------------------|-----------------------------------|
Gb|---------------------------------|-------------------4---------------| 
Db|---------------------------------|-------------------4---------------|
Ab|-2-------------------------------|-0-----------------2---------------|
Db|-2-------------------------------|-0---------------------------------|


Lead Guitar:

eb|---------------------------------|---------------------------------------|
Bb|-5h8p5p0-5h8p5p0-5h8p5p0-5h8p5p0|10h13p10p0-10h13p10p0-7h10p7p0-7h10p7p0-|
Gb|---------------------------------|---------------------------------------|
Db|---------------------------------|---------------------------------------|
Ab|---------------------------------|---------------------------------------|
Db|---------------------------------|---------------------------------------|


Rhythm Guitar:

eb|---------------------------------|---------------------------------------|
Bb|---------------------------------|---------------------------------------|
Gb|---------------------------------|-2-------------------------------------|
Db|---------------------------------|-2-------------------------------------|
Ab|-2-------------------------------|-0---------------------4---------------|
Db|-2-------------------------------|-----------------------4---------------|


Lead Guitar:

eb|-------------------------------------|-----------------------------------|
Bb|-8h12p8p0-8h12p8p0-7h11p7p0-7h11p7p0-|/12--------------------------------|
Gb|-------------------------------------|-----------------------------------|
Db|-------------------------------------|-----------------------------------|
Ab|-------------------------------------|-----------------------------------|
Db|-------------------------------------|-----------------------------------|


Rhythm Guitar:

eb|-------------------------------------|-----------------------------------|
Bb|-------------------------------------|-----------------------------------|
Gb|-------------------------------------|-4---------------------------------|
Db|-------------------------------------|-4---------------------------------|
Ab|-5-----------------4-----------------|-2---------------------------------|
Db|-5-----------------4-----------------|-----------------------------------|


Part 2:

Lead Guitar:

eb|---------------------------------|---------------------------------|
Bb|---------------------------------|---------------------------------|
Gb|---------------------------------|----------------/17------16------| 
Db|-9---------8--9-/16------14------|-13--------14-16-----------------|
Ab|---------------------------------|---------------------------------|
Db|---------------------------------|---------------------------------|


Rhythm Guitar:

eb|---------------------------------------------|
Bb|---------------------------------------------|
Gb|---------------------------------------------|
Db|---------------------------------------------|
Ab|-2-------2pm---2pm---2pm---2pm---2pm---2pm---|
Db|-2-------2pm---2pm---2pm---2pm---2pm---2pm---|

eb|-------------------------------------------------|
Bb|-------------------------------------------------|
Gb|-------------------------------------------------|
Db|-4pm---4pm---4pm---4pm---4pm---4pm---4pm---4pm---|
Ab|-2pm---2pm---2pm---2pm---2pm---2pm---2pm---2pm---|
Db|-------------------------------------------------|


Lead Guitar:

eb|---------------------------------|---------------------------------|
Bb|---------------------------------|16b17----1717171717--------------|
Gb|-14--------16-17-16--------16-17-|---------------------------------| 
Db|---------------------------------|---------------------------------|
Ab|---------------------------------|---------------------------------|
Db|---------------------------------|---------------------------------|


Rhythm Guitar:

eb|-------------------------------------------------|
Bb|-------------------------------------------------|
Gb|-------------------------------------------------|
Db|-2pm---2pm---2pm---2pm---2pm---2pm---2pm---2pm---|
Ab|-0pm---0pm---0pm---0pm---0pm---0pm---0pm---0pm---|
Db|-------------------------------------------------|

eb|-------------------------------------------------|
Bb|-------------------------------------------------|
Gb|-------------------------------------------------|
Db|-------------------------------------------------|
Ab|-2pm---2pm---2pm---2pm---2pm---2pm---2pm---2pm---|
Db|-2pm---2pm---2pm---2pm---2pm---2pm---2pm---2pm---|


Lead Guitar:

eb|---------------------------------|/19-------17-15------------------|
Bb|-16--------17-19-16--------17-19-|----------------17---------------|
Gb|---------------------------------|---------------------------------| 
Db|---------------------------------|---------------------------------|
Ab|---------------------------------|---------------------------------|
Db|---------------------------------|---------------------------------|


Rhythm Guitar:

eb|-------------------------------------------------|
Bb|-------------------------------------------------|
Gb|-------------------------------------------------| 
Db|-4pm---4pm---4pm---4pm---4pm---4pm---4pm---4pm---|
Ab|-2pm---2pm---2pm---2pm---2pm---2pm---2pm---2pm---|
Db|-------------------------------------------------|

eb|-------------------------------------------------|
Bb|-------------------------------------------------|
Gb|-------------------------------------------------|
Db|-------------------------------------------------|
Ab|-2pm---2pm---2pm---2pm---2pm---2pm---2pm---2pm---|
Db|-2pm---2pm---2pm---2pm---2pm---2pm---2pm---2pm---|


Lead Guitar:

eb|-19---20---17---19---20----17----|-19------------------------------|
Bb|---------------------------------|---------------------------------|
Gb|---------------------------------|---------------------------------| 
Db|---------------------------------|---------------------------------|
Ab|---------------------------------|---------------------------------|
Db|---------------------------------|---------------------------------|


Rhythm Guitar:

eb|-------------------------------------------------|-----------------------|
Bb|-------------------------------------------------|-----------------------|
Gb|-------------------------------------------------|-----------------------|
Db|-4pm---4pm---4pm---4pm---4pm---4pm---4pm---4pm---|-4---------------------|
Ab|-2pm---2pm---2pm---2pm---2pm---2pm---2pm---2pm---|-2---------------------|
Db|-------------------------------------------------|-------------5---4---0-|


Part 3:

Lead Guitar:

eb|-----------------12h14-15--14-12-|11h14p11-------------------------|
Bb|---------------12----------------|--------12-----------------------|
Gb|--------9h11/12------------------|----------12p11-14p12p11---------| 
Db|-------9-------------------------|------------------------14-13----|
Ab|-7h9h10--------------------------|---------------------------------|
Db|---------------------------------|---------------------------------|


Rhythm Guitar:

eb|-------------------------------------------------|
Bb|-------------------------------------------------|
Gb|-------------------------------------------------|
Db|-------------------------------------------------|
Ab|-2pm---2pm---2pm---2pm---2pm---2pm---2pm---2pm---|
Db|-2pm---2pm---2pm---2pm---2pm---2pm---2pm---2pm---|

eb|-------------------------------------------------|
Bb|-------------------------------------------------|
Gb|-------------------------------------------------|
Db|-4pm---4pm---4pm---4pm---4pm---4pm---4pm---4pm---|
Ab|-2pm---2pm---2pm---2pm---2pm---2pm---2pm---2pm---|
Db|-------------------------------------------------|


Lead Guitar:

eb|-----12-171717-----12-161616-----12-151515-----12-141414-|
Bb|---13------------13------------13------------13----------|
Gb|-14------------14------------14------------14------------| 
Db|---------------------------------------------------------|
Ab|---------------------------------------------------------|
Db|---------------------------------------------------------|


Rhythm Guitar:

eb|-------------------------------------------------------------------------|
Bb|-------------------------------------------------------------------------|
Gb|-------------------------------------------------------------------------|
Db|-2pm------2pm------2pm------2pm------2pm------2pm------2pm------2pm------|
Ab|-0pm------0pm------0pm------0pm------0pm------0pm------0pm------0pm------|
Db|-------------------------------------------------------------------------|


Lead Guitar:

eb|-14h15p14-12---------------------------------------------|
Bb|------------12-------------------------------------------|
Gb|--------------12-11h12p11-9------------------------------| 
Db|---------------------------9-----------------------------|
Ab|----------------------------10\7-------------------------|
Db|---------------------------------------------------------|


Rhythm Guitar:

eb|-------------------------------------------------------------------------|
Bb|-------------------------------------------------------------------------|
Gb|-------------------------------------------------------------------------|
Db|-------------------------------------------------------------------------|
Ab|-2pm------2pm------2pm------2pm------2pm------2pm------2pm------2pm------|
Db|-2pm------2pm------2pm------2pm------2pm------2pm------2pm------2pm------|


Lead Guitar:

eb|---------------------------------------11|-12----------------------------|
Bb|---------------------------------11-12---|---12--------------------------|
Gb|-----------------------8-9-11-12---------|-----12\11---------------------|
Db|-------------------8-9-------------------|-----------14------------------|
Ab|---------------6-9-----------------------|-------------14----------------|
Db|-9h10p9-7-9-10---------------------------|---------------17-16-14--------|


Rythm Guitar:

eb|---------------------------------------------------------|
Bb|---------------------------------------------------------|
Gb|---------------------------------------------------------|
Db|-4pm----4pm----4pm----4pm----4pm----4pm----4pm----4pm----|
Ab|-2pm----2pm----2pm----2pm----2pm----2pm----2pm----2pm----|
Db|---------------------------------------------------------|

eB|---------------------------------------------------------|
Bb|---------------------------------------------------------|
Gb|---------------------------------------------------------|
Db|---------------------------------------------------------|
Ab|-2pm----2pm----2pm----2pm----2pm----2pm----2pm----2pm----|
Db|-2pm----2pm----2pm----2pm----2pm----2pm----2pm----2pm----|


Lead Guitar:

eb|---------------------------------|---------------------------------|
Bb|---------------------------------|---------------------------------|
Gb|-9----12----11-9-8---------------|---------------------------------| 
Db|------------------10-9-7---------|---------------------------------|
Ab|------------------------10-9-7---|---------------------------------|
Db|------------------------------10-|-8b9-----------------------------|


Rhythm Guitar:

eb|---------------------------------|---------------------------------|
Bb|---------------------------------|---------------------------------|
Gb|---------------------------------|-4-------------------------------| 
Db|-4-------------------------------|-4-------------------------------|
Ab|-2---------------2---------------|-2-------------------------------|
Db|-1---------------2---------------|---------------------------------|


Intro

Chorus (x2)


Outro:

Lead Guitar:

eb|---------------------------------|---------------------------------|
Bb|-5-0-0-7-0-0-8-0-0-7-0-0-5-0-5-0-|-5-0-0-7-0-0-8-0-0-7-0-0-5-0-5-0-|
Gb|---------------------------------|---------------------------------| 
Db|---------------------------------|---------------------------------|
Ab|---------------------------------|---------------------------------|
Db|---------------------------------|---------------------------------|


Rhythm Guitar:

eb|---------------------------------|---------------------------------|
Bb|---------------------------------|---------------------------------|
Gb|---------------------------------|---------------------------------| 
Db|---------------------------------|---------------------------------|
Ab|-2-------4-------5-------x---x---|----------x---x----------x---x---|
Db|-2-------4-------5-------x---x---|----------x---x----------x---x---|


Lead Guitar:

eb|---------------------------------|---------------------------------|
Bb|-5-0-0-7-0-0-8-0-0-7-0-0-7--\3---|---------------------------------|
Gb|---------------------------------|---------------------------------| 
Db|---------------------------------|---------------------------------|
Ab|---------------------------------|---------------------------------|
Db|---------------------------------|---------------------------------|


Rhythm Guitar:

eb|---------------------------------|---------------------------------|
Bb|---------------------------------|---------------------------------|
Gb|---------------------------------|---------------------------------| 
Db|---------------------------------|---------------------------------|
Ab|-2-------4-------5-------x---0---|---------------------------------|
Db|-2-------4-------5-------x---0---|---------------------------------|

            
            
Suggest correction
Creating personal tab
Creating personal tab
You can edit any tab online and save it as your Personal.

You can edit, replace or remove any tab part or add personal notes – all changes will be seen only by you.

Personal tabs can be accessed anytime from any device, even offline.
Learn more »
Give kudos to tab author, rate the tab!
1 2 3 4 5
comments
print report bad tab
guest
You may want to rate the tab now too:
select rating
Wanna post a correction for this tab? Suggest correction