Oops, an error
Loading. Please wait.

Heretic bass

version 1
version 1

Whole song

3,398 views 12 this week
no commentswrite comment
1 2 3 4 5
x 3
add to favorites
×
Save as Personal and add changes to this tab that will be seen only by you. Learn more ›
×
You can save this tab as Personal to edit and correct it or add notes. All changes will be seen only by you. Learn more »
launch autoscroll
font size
0
reset
guitar tuner
backing track
0:00
0:00
edit
Autoscroll
slow
fast
+/-
esc
set tempo
stop
-----------------------------------------------------------------------------
                             Heretic - Avenged Sevenfold
-----------------------------------------------------------------------------
Tabbed by: Andu Needle
E-mail: sulfur_in_my_lungs@yahoo.com

Intro/Verse:

G|------------------------------------------------------------|
D|------------------------------------------------------------|
A|------------------------------------------------------------|
D|-07-08~-000-05-07~--23300-000000000000----------------------|(x4)

Pre chorus:

G|------------------------------------------------------------|
D|------------------------------------------------------------|
A|-55555555-11111111-22222222-33334444------------------------|
D|------------------------------------------------------------|

G|------------------------------------------------------------|
D|------------------------------------------------------------|
A|-55555555-11111111-22222222-3-------------------------------|
D|------------------------------------------------------------|

Chorus:

G|------------------------------------------------------------|
D|------------------------------------------------------------|
A|-55555555(x2)-33333333(x2)-22222222(x2)-11111111-00000000---|
D|------------------------------------------------------------|(x2)

The second intro and the second verse are the same as the others!
Pre chorus 2 is the same as the other!
Chorus 2 is the same as the other!

Bridge:

G|-----------------------------------------------------------|
D|-----------------------------------------------------------|
A|-------------01~--10~--0-----------------------------------|
D|-0~--23~--35-------------532-------------------------------|

G|-----------------------------------------------------------|
D|-----------------------------------------------------------|
A|-------------01~--10~--04~---------------------------------|
D|-0~--23~--35-----------------------------------------------|

The "10~" it is 1 and 0, not 10. You play these two part for 4 time before the solo.

Solo:

G|-----------------------------------------------------------|
D|-----------------------------------------------------------|
A|-------------------11111111-00004444-----------------------|
D|-00000000-33333333-----------------------------------------|(x4)

G|------------------------------------------------------------|
D|------------------------------------------------------------|
A|-55555555-11111111-22222222-33334444------------------------|
D|------------------------------------------------------------|

G|-----------------------------------------------------------|
D|-----------------------------------------------------------|
A|-55555555-11111111-22222222-3------------------------------|
D|-----------------------------------------------------------|

The last chorus is the same as the others and it is played twice.

Ending:

G|-----------------------------------------------------------|
D|-----------------------------------------------------------|
A|-----------------------------------------------------------|
D|-0---------------------------------------------------------|

            
            
Suggest correction
Creating personal tab
Creating personal tab
You can edit any tab online and save it as your Personal.

You can edit, replace or remove any tab part or add personal notes – all changes will be seen only by you.

Personal tabs can be accessed anytime from any device, even offline.
Learn more »
Give kudos to tab author, rate the tab!
1 2 3 4 5
comments
print report bad tab
guest
You may want to rate the tab now too:
select rating
Wanna post a correction for this tab? Suggest correction