Oops, an error
Loading. Please wait.

Heretic bass

version 2
version 2

Whole song

1,320 views 3 this week
no commentswrite comment
1 2 3 4 5
1 last vote to show rating
add to favorites
×
Save as Personal and add changes to this tab that will be seen only by you. Learn more ›
×
You can save this tab as Personal to edit and correct it or add notes. All changes will be seen only by you. Learn more »
launch autoscroll
font size
0
reset
guitar tuner
backing track
0:00
0:00
edit
Autoscroll
slow
fast
+/-
esc
set tempo
stop

Verse 0:12
G|-------------------------------------------------------------------|
D|o-----------------------------------------------------------------o|
A|o-----------------------------------------------------------------o|x4
D|--0-0-0-0-0-0-0-0-0-0-0-0-0-0-0-0-0-0-0-0-0-0-0-0-0-0-0-0-0-0-0-0--|
    1 + 2 + 3 + 4 + 1 + 2 + 3 + 4 + 1 + 2 + 3 + 4 + 1 + 2 + 3 + 4 +

Pre Chorus 0:41
G|-----------------------------------------------------------------|
D|-----------------------------------------------------------------|
A|-5-5-5-5-5-5-5-5-1-1-1-1-1-1-1-1-2-2-2-2-2-2-2-2-3-3-3-3-4-4-4-4-|
D|-----------------------------------------------------------------|
   1 + 2 + 3 + 4 + 1 + 2 + 3 + 4 + 1 + 2 + 3 + 4 + 1 + 2 + 3 + 4 +

G|-----------------------------------------------------------------|
D|-----------------------------------------------------------------|
A|-5-5-5-5-5-5-5-5-1-1-1-1-1-1-1-1-2-2-2-2-2-2-2-2-3---------------|
D|-----------------------------------------------------------------|
   1 + 2 + 3 + 4 + 1 + 2 + 3 + 4 + 1 + 2 + 3 + 4 + 1 + 2 + 3 + 4 +

Chorus 0:55
G|-----------------------------------------------------------------|
D|-----------------------------5-7---------------------------3-2-3-|
A|-5-5-5-5-5-5-5-5-5-5-5-5-5-7-----3-3-3-3-3-3-3-3-3-3-3-3-3-------|
D|-----------------------------------------------------------------|
   1 + 2 + 3 + 4 + 1 + 2 + 3 + 4 + 1 + 2 + 3 + 4 + 1 + 2 + 3 + 4 +

G|-----------------------------------------------------------------|
D|---------------------------3-2---------------------------2-3-----|
A|-2-2-2-2-2-2-2-2-2-2-2-2-2-----2-1-1-1-1-1-1-1-1-0-0-0-0-----4---|
D|-----------------------------------------------------------------|
   1 + 2 + 3 + 4 + 1 + 2 + 3 + 4 + 1 + 2 + 3 + 4 + 1 + 2 + 3 + 4 +

G|-----------------------------------------------------------------|
D|-----------------------------5-7---------------------------3-2-3-|
A|-5-5-5-5-5-5-5-5-5-5-5-5-5-7-----3-3-3-3-3-3-3-3-3-3-3-3-3-------|
D|-----------------------------------------------------------------|
   1 + 2 + 3 + 4 + 1 + 2 + 3 + 4 + 1 + 2 + 3 + 4 + 1 + 2 + 3 + 4 +

G|-----------------------------------------------------------------|
D|---------------------------3-2---------------------------2-3-----|
A|-2-2-2-2-2-2-2-2-2-2-2-2-2-----2-1-1-1-1-1-1-1-1-0-0-0-0-----4-4-|
D|-----------------------------------------------------------------|
   1 + 2 + 3 + 4 + 1 + 2 + 3 + 4 + 1 + 2 + 3 + 4 + 1 + 2 + 3 + 4 +

Verse 1:23
G|-------------------------------------------------------------------|
D|o-----------------------------------------------------------------o|
A|o-----------------------------------------------------------------o|x4
D|--0-0-0-0-0-0-0-0-0-0-0-0-0-0-0-0-0-0-0-0-0-0-0-0-0-0-0-0-0-0-0-0--|
    1 + 2 + 3 + 4 + 1 + 2 + 3 + 4 + 1 + 2 + 3 + 4 + 1 + 2 + 3 + 4 +

Pre Chorus 1:51
G|-----------------------------------------------------------------|
D|-----------------------------------------------------------------|
A|-5-5-5-5-5-5-5-5-1-1-1-1-1-1-1-1-2-2-2-2-2-2-2-2-3-3-3-3-4-4-4-4-|
D|-----------------------------------------------------------------|
   1 + 2 + 3 + 4 + 1 + 2 + 3 + 4 + 1 + 2 + 3 + 4 + 1 + 2 + 3 + 4 +

G|-----------------------------------------------------------------|
D|-----------------------------------------------------------------|
A|-5-5-5-5-5-5-5-5-1-1-1-1-1-1-1-1-2-2-2-2-2-2-2-2-3---------------|
D|-----------------------------------------------------------------|
   1 + 2 + 3 + 4 + 1 + 2 + 3 + 4 + 1 + 2 + 3 + 4 + 1 + 2 + 3 + 4 +

Chorus 2:05
G|-----------------------------------------------------------------|
D|-----------------------------5-7---------------------------3-2-3-|
A|-5-5-5-5-5-5-5-5-5-5-5-5-5-7-----3-3-3-3-3-3-3-3-3-3-3-3-3-------|
D|-----------------------------------------------------------------|
   1 + 2 + 3 + 4 + 1 + 2 + 3 + 4 + 1 + 2 + 3 + 4 + 1 + 2 + 3 + 4 +

G|-----------------------------------------------------------------|
D|---------------------------3-2---------------------------2-3-----|
A|-2-2-2-2-2-2-2-2-2-2-2-2-2-----2-1-1-1-1-1-1-1-1-0-0-0-0-----4---|
D|-----------------------------------------------------------------|
   1 + 2 + 3 + 4 + 1 + 2 + 3 + 4 + 1 + 2 + 3 + 4 + 1 + 2 + 3 + 4 +

G|-----------------------------------------------------------------|
D|-----------------------------5-7---------------------------3-2-3-|
A|-5-5-5-5-5-5-5-5-5-5-5-5-5-7-----3-3-3-3-3-3-3-3-3-3-3-3-3-------|
D|-----------------------------------------------------------------|
   1 + 2 + 3 + 4 + 1 + 2 + 3 + 4 + 1 + 2 + 3 + 4 + 1 + 2 + 3 + 4 +

G|-----------------------------------------------------------------|
D|---------------------------3-2---------------------------2-3-----|
A|-2-2-2-2-2-2-2-2-2-2-2-2-2-----2-1-1-1-1-1-1-1-1-0-0-0-0-----4-4-|
D|-----------------------------------------------------------------|
   1 + 2 + 3 + 4 + 1 + 2 + 3 + 4 + 1 + 2 + 3 + 4 + 1 + 2 + 3 + 4 +

Rest

Bridge 2:37
G|------------------------------------------------------------------|
D|o-----------------------------------------------------------------|
A|o-----------------------------0---1-------1-----1-0-------0-------|
D|--0-------0---2---3-------3-5-------------------------------5-3-2-|
    1 + 2 + 3 + 4 + 1 + 2 + 3 + 4 + 1 + 2 + 3 + 4 + 1 + 2 + 3 + 4 +

G|------------------------------------------------------------------|
D|-----------------------------------------------------------------o|
A|-----------------------------0---1-------1-----1-0-------0-4-----o|
D|-0-------0---2---3-------3-5--------------------------------------|
   1 + 2 + 3 + 4 + 1 + 2 + 3 + 4 + 1 + 2 + 3 + 4 + 1 + 2 + 3 + 4 +

3:06 Vocals Enter
G|-----------------------------------------------------------------|
D|-----------------------------------------------------------------|
A|-----------------------------0---1-------1-----1-0-------0-------|
D|-0-------0---2---3-------3-5-------------------------------5-3-2-|
   1 + 2 + 3 + 4 + 1 + 2 + 3 + 4 + 1 + 2 + 3 + 4 + 1 + 2 + 3 + 4 +

G|-----------------------------------------------------------------|
D|-----------------------------------------------------------------|
A|-----------------------------0---1-------1-----1-0-------0-4-----|
D|-0-------0---2---3-------3-5-------------------------------------|
   1 + 2 + 3 + 4 + 1 + 2 + 3 + 4 + 1 + 2 + 3 + 4 + 1 + 2 + 3 + 4 +

G|-----------------------------------------------------------------|
D|---------------------------5-----8-------8-----8-7-------7-8-7-5-|
A|-5-------5---7---8-------8---8-7---------------------------------|
D|-----------------------------------------------------------------|
   1 + 2 + 3 + 4 + 1 + 2 + 3 + 4 + 1 + 2 + 3 + 4 + 1 + 2 + 3 + 4 +

G|-----------------------------------------------------------------|
D|-----------------------------------------------------------------|
A|-----------------------------0---1---1-1-1-1-1-1-0-0-0-0-0-1-0---|
D|-0-------0---2---3-------3-5-----------------------------------5-|
   1 + 2 + 3 + 4 + 1 + 2 + 3 + 4 + 1 + 2 + 3 + 4 + 1 + 2 + 3 + 4 +

Solo 3:34
G|-------------------------------------------------------------------|
D|o-----------------------------------------------------------------o|
A|o---------------------------------1---1-1-1-1-1-0---0-0-4-4-4-4-4-o|x3
D|--0---0---00002-3---3-3---3-3-3-2----------------------------------|
    1 + 2 + 3 + 4 + 1 + 2 + 3 + 4 + 1 + 2 + 3 + 4 + 1 + 2 + 3 + 4 +

G|-----------------------------------------------------------------|
D|-----------------------------------------------------------------|
A|---------------------------------1-1-1-1-1-1-1-0-0-0-0-4-4-4-4-4-|
D|-0---0---00002-3---3-3---3-3-3-2---------------------------------|
   1 + 2 + 3 + 4 + 1 + 2 + 3 + 4 + 1 + 2 + 3 + 4 + 1 + 2 + 3 + 4 +

G|-----------------------------------------------------------------|
D|-----------------------------------------------------------------|
A|-5-5-5-5-5-5-5-5-1-1-1-1-1-1-1-1-2-2-2-2-2-2-2-2-3-3-3-3-4-4-4-4-|
D|-----------------------------------------------------------------|
   1 + 2 + 3 + 4 + 1 + 2 + 3 + 4 + 1 + 2 + 3 + 4 + 1 + 2 + 3 + 4 +

G|-----------------------------------------------------------------|
D|-----------------------------------------------------------------|
A|-5-5-5-5-5-5-5-5-1-1-1-1-1-1-1-1-2-2-2-2-2-2-2-2-3---------------|
D|-----------------------------------------------------------------|
   1 + 2 + 3 + 4 + 1 + 2 + 3 + 4 + 1 + 2 + 3 + 4 + 1 + 2 + 3 + 4 +

Chorus
G|-----------------------------------------------------------------|
D|-----------------------------5-7---------------------------3-2-3-|
A|-5-5-5-5-5-5-5-5-5-5-5-5-5-7-----3-3-3-3-3-3-3-3-3-3-3-3-3-------|
D|-----------------------------------------------------------------|
   1 + 2 + 3 + 4 + 1 + 2 + 3 + 4 + 1 + 2 + 3 + 4 + 1 + 2 + 3 + 4 +

G|-----------------------------------------------------------------|
D|---------------------------3-2---------------------------2-3-----|
A|-2-2-2-2-2-2-2-2-2-2-2-2-2-----2-1-1-1-1-1-1-1-1-0-0-0-0-----4---|
D|-----------------------------------------------------------------|
   1 + 2 + 3 + 4 + 1 + 2 + 3 + 4 + 1 + 2 + 3 + 4 + 1 + 2 + 3 + 4 +

G|-----------------------------------------------------------------|
D|-----------------------------5-7---------------------------3-2-3-|
A|-5-5-5-5-5-5-5-5-5-5-5-5-5-7-----3-3-3-3-3-3-3-3-3-3-3-3-3-------|
D|-----------------------------------------------------------------|
   1 + 2 + 3 + 4 + 1 + 2 + 3 + 4 + 1 + 2 + 3 + 4 + 1 + 2 + 3 + 4 +

G|-----------------------------------------------------------------|
D|---------------------------3-2---------------------------2-3-----|
A|-2-2-2-2-2-2-2-2-2-2-2-2-2-----2-1-1-1-1-1-1-1-1-0-0-0-0-----4-4-|
D|-----------------------------------------------------------------|
   1 + 2 + 3 + 4 + 1 + 2 + 3 + 4 + 1 + 2 + 3 + 4 + 1 + 2 + 3 + 4 +

Rest

Blood 4:49
G|----------|
D|----------|
A|----------|
D|-0--------|

Tabbed by Dave Vucko
Suggest correction
Creating personal tab
Creating personal tab
You can edit any tab online and save it as your Personal.

You can edit, replace or remove any tab part or add personal notes – all changes will be seen only by you.

Personal tabs can be accessed anytime from any device, even offline.
Learn more »
Give kudos to tab author, rate the tab!
1 2 3 4 5
comments
print report bad tab
guest
You may want to rate the tab now too:
select rating
Wanna post a correction for this tab? Suggest correction