Oops, an error
Loading. Please wait.

Higher Tab

2,107 views 348 this week
no commentswrite comment
1 2 3 4 5
x 3
add to favorites
launch autoscroll
font size
0
reset
how to read this tab
guitar tuner
Autoscroll
slow
fast
+/-
esc
set tempo
stop
Help us to improve Ultimate-Guitar.com Take our survey!
×
Author
Difficulty
Tuning
intermediate
D A D G B E
Tabbed by: Joshua Garcia (joshuag523@aol.com)

Tabs for the song: Higher by Avenged Sevenfold
Please rate and let me know if you have any corrections. Thank you.


Tuning: Drop D (D A D G B E)


[Intro]
Guitar 1 (Left):
E||-----------------------------------------------------------------------------------------|
B||-----------------------------------------------------------------------------------------|
G||-----------------------------------------------------------------------------------------|
D||--3--------8---x--7--x--3--------8---x--7--x--2--------7--x--5--x--2--------8---x--7--x--|
A||--5--------10--x--8--x--5--------10--x--8--x--3--------8--x--7--x--3--------10--x--8--x--|
D||-----------------------------------------------------------------------------------------|


E||-----------------------------------------------------------------------------------------|
B||-----------------------------------------------------------------------------------------|
G||-----------------------------------------------------------------------------------------|
D||--3--------8---x--7--x--3--------8---x--7--x--2--------7--x--5--x--2--------7--x--5--x---|
A||--5--------10--x--8--x--5--------10--x--8--x--3--------8--x--7--x--3--------8--x--7--x---|
D||-----------------------------------------------------------------------------------------|


Guitar 2 (Right):
E||-----------------------------------------------------------------------------------------|
B||-----------------------------------------------------------------------------------------|
G||-----------------------------------------------------------------------------------------|
D||-----------8---x--7--x-----------8---x--7--x--2--------7--x--5--x--2--------7--x--5--x---|
A||--8--------10--x--8--x--8--------10--x--8--x--3--------8--x--7--x--3--------8--x--7--x---|
D||--0---------------------0----------------------------------------------------------------|


E||-----------------------------------------------------------------------------------------|
B||-----------------------------------------------------------------------------------------|
G||-----------------------------------------------------------------------------------------|
D||-----------8---x--7--x-----------8---x--7--x--2--------7--x--5--x--2--------7--x--5--x---|
A||--8--------10--x--8--x--8--------10--x--8--x--3--------8--x--7--x--3--------8--x--7--x---|
D||--0---------------------0----------------------------------------------------------------|



[Verse]
Guitar 1/2:
E||-------------------------------------------------------------------------------------------------|
B||-------------------------------------------------------------------------------------------------|
G||-------------------------------------------------------------------------------------------------|
D||-------------------------------------------------------------------------------------------------|
A||-----------------8----------------------------------------------8--------------------------------|
D||--0-0-0-12-12-12-12--------0-0-0-12-12-12-0-0-12-0-0-0-12-12-12-12--------0-0-0-12-12-12-0-0-12--|
     . . . .  .  .            . . . .  .  .  . . .  . . . .  .  .            . . . .  .  .  . . .


E||-------------------------------------------------------------------------------------------------|
B||-------------------------------------------------------------------------------------------------|
G||-------------------------------------------------------------------------------------------------|
D||-------------------------------------------------------------------------------------------------|
A||-----------------7----------------------------------------------7--------------------------------|
D||--0-0-0-10-10-10-10--------0-0-0-10-10-10-0-0-10-0-0-0-10-10-10-10--------0-0-0-10-10-10-0-0-10--|
     . . . .  .  .            . . . .  .  .  . . .  . . . .  .  .            . . . .  .  .  . . .


E||-------------------------------------------------------------------------------------------------|
B||-------------------------------------------------------------------------------------------------|
G||-------------------------------------------------------------------------------------------------|
D||-------------------------------------------------------------------------------------------------|
A||-----------------8----------------------------------------------8--------------------------------|
D||--0-0-0-12-12-12-12--------0-0-0-12-12-12-0-0-12-0-0-0-12-12-12-12--------0-0-0-12-12-12-0-0-12--|
     . . . .  .  .            . . . .  .  .  . . .  . . . .  .  .            . . . .  .  .  . . .


E||-------------------------------------------------------------------------------------------------|
B||-------------------------------------------------------------------------------------------------|
G||-------------------------------------------------------------------------------------------------|
D||-------------------------------------------------------------------------------------------------|
A||-----------------7----------------------------------------------7--------------------------------|
D||--0-0-0-10-10-10-10--------0-0-0-10-10-10-0-0-10-0-0-0-10-10-10-10--------0-0-0-10-10-10-10-10-0-|
     . . . .  .  .            . . . .  .  .  . . .  . . . .  .  .            . . . .  .  .  .  .  .



[Pre-Chorus]
Guitar 1 (Left):
E||-----------------------------------------------------------------------------------------|
B||-----------------------------------------------------------------------------------------|
G||-----------------------------------------------------------------------------------------|
D||--3--------8---x--7--x--3--------8---x--7--x--2--------7--x--5--x--2--------8---x--7--x--|
A||--5--------10--x--8--x--5--------10--x--8--x--3--------8--x--7--x--3--------10--x--8--x--|
D||-----------------------------------------------------------------------------------------|


E||-----------------------------------------------------------------------------------------|
B||-----------------------------------------------------------------------------------------|
G||-----------------------------------------------------------------------------------------|
D||--3--------8---x--7--x--3--------8---x--7--x--2--------7--x--5--x--2--------7--x--5--x---|
A||--5--------10--x--8--x--5--------10--x--8--x--3--------8--x--7--x--3--------8--x--7--x---|
D||-----------------------------------------------------------------------------------------|


Guitar 2 (Right):
E||-----------------------------------------------------------------------------------------|
B||-----------------------------------------------------------------------------------------|
G||-----------------------------------------------------------------------------------------|
D||-----------8---x--7--x-----------8---x--7--x--2--------7--x--5--x--2--------7--x--5--x---|
A||--8--------10--x--8--x--8--------10--x--8--x--3--------8--x--7--x--3--------8--x--7--x---|
D||--0---------------------0----------------------------------------------------------------|


E||-----------------------------------------------------------------------------------------|
B||-----------------------------------------------------------------------------------------|
G||-----------------------------------------------------------------------------------------|
D||-----------8---x--7--x-----------8---x--7--x--2--------7--x--5--x--2--------7--x--5--x---|
A||--8--------10--x--8--x--8--------10--x--8--x--3--------8--x--7--x--3--------8--x--7--x---|
D||--0---------------------0----------------------------------------------------------------|



[Chorus]
Guitar 1:
         T      T      T      T      T        T      T      T      T      T
E||-----------------------------------------------------------------------------|
B||-----------------------------------------------------------------------------|
G||-----------------------------------------------------------------------------|
D||--5h8-12-5h8-12-5h8-12-5h8-12-5h8-12-5\4h7-12-4h7-12-4h7-12-4h7-12-4h7-12-4--|
A||-----------------------------------------------------------------------------|
D||-----------------------------------------------------------------------------|


         T      T      T      T      T        T      T      T      T      T
E||-----------------------------------------------------------------------------|
B||-----------------------------------------------------------------------------|
G||--5h8-12-5h8-12-5h8-12-5h8-12-5h8-12-5\3h7-12-3h7-12-3h7-12-3h7-12-3h7-12-3--|
D||-----------------------------------------------------------------------------|
A||-----------------------------------------------------------------------------|
D||-----------------------------------------------------------------------------|


         T      T      T      T      T          T      T      T      T      T
E||--------------------------------------------------------------------------------|
B||--------------------------------------------------------------------------------|
G||--3h8-12-3h8-12-3h8-12-3h8-12-3h8-12p8p3----------------------------------------|
D||-----------------------------------------5h8-12-5h8-12-5h8-12-5h8-12-5h8-12-5\--|
A||--------------------------------------------------------------------------------|
D||--------------------------------------------------------------------------------|


         T      T      T      T      T        T      T      T      T      T
E||-----------------------------------------------------------------------------|
B||-----------------------------------------------------------------------------|
G||-----------------------------------------------------------------------------|
D||--4h7-12-4h7-12-4h7-12-4h7-12-4h7-12-4-4h7-10-4h7-10-4h7-10-4h7-10-4h7-10-4--|
A||-----------------------------------------------------------------------------|
D||-----------------------------------------------------------------------------|


Guitar 2:
E||---------------------------------------------------------------------------------------------|
B||---------------------------------------------------------------------------------------------|
G||---------------------------------------------------------------------------------------------|
D||--8---8---8--7---7---7--10---10---10--8---8---8--1---1---1--8---8---8--7---7---7--7---7---7--|
A||--5---5---5--4---4---4--10---10---10--8---8---8--1---1---1--5---5---5--4---4---4--4---4---4--|
D||--5---5---5--4---4---4--10---10---10--8---8---8--1---1---1--5---5---5--4---4---4--4---4---4--|



[Verse]
Guitar 1/2:
E||-------------------------------------------------------------------------------------------------|
B||-------------------------------------------------------------------------------------------------|
G||-------------------------------------------------------------------------------------------------|
D||-------------------------------------------------------------------------------------------------|
A||-----------------8----------------------------------------------8--------------------------------|
D||--0-0-0-12-12-12-12--------0-0-0-12-12-12-0-0-12-0-0-0-12-12-12-12--------0-0-0-12-12-12-0-0-12--|
     . . . .  .  .            . . . .  .  .  . . .  . . . .  .  .            . . . .  .  .  . . .


E||-------------------------------------------------------------------------------------------------|
B||-------------------------------------------------------------------------------------------------|
G||-------------------------------------------------------------------------------------------------|
D||-------------------------------------------------------------------------------------------------|
A||-----------------7----------------------------------------------7--------------------------------|
D||--0-0-0-10-10-10-10--------0-0-0-10-10-10-0-0-10-0-0-0-10-10-10-10--------0-0-0-10-10-10-0-0-10--|
     . . . .  .  .            . . . .  .  .  . . .  . . . .  .  .            . . . .  .  .  . . .


E||-------------------------------------------------------------------------------------------------|
B||-------------------------------------------------------------------------------------------------|
G||-------------------------------------------------------------------------------------------------|
D||-------------------------------------------------------------------------------------------------|
A||-----------------8----------------------------------------------8--------------------------------|
D||--0-0-0-12-12-12-12--------0-0-0-12-12-12-0-0-12-0-0-0-12-12-12-12--------0-0-0-12-12-12-0-0-12--|
     . . . .  .  .            . . . .  .  .  . . .  . . . .  .  .            . . . .  .  .  . . .


E||-------------------------------------------------------------------------------------------------|
B||-------------------------------------------------------------------------------------------------|
G||-------------------------------------------------------------------------------------------------|
D||-------------------------------------------------------------------------------------------------|
A||-----------------7----------------------------------------------7--------------------------------|
D||--0-0-0-10-10-10-10--------0-0-0-10-10-10-0-0-10-0-0-0-10-10-10-10--------0-0-0-10-10-10-10-10-0-|
     . . . .  .  .            . . . .  .  .  . . .  . . . .  .  .            . . . .  .  .  .  .  .



[Pre-Chorus]
Guitar 1 (Left):
E||-----------------------------------------------------------------------------------------|
B||-----------------------------------------------------------------------------------------|
G||-----------------------------------------------------------------------------------------|
D||--3--------8---x--7--x--3--------8---x--7--x--2--------7--x--5--x--2--------8---x--7--x--|
A||--5--------10--x--8--x--5--------10--x--8--x--3--------8--x--7--x--3--------10--x--8--x--|
D||-----------------------------------------------------------------------------------------|


E||-----------------------------------------------------------------------------------------|
B||-----------------------------------------------------------------------------------------|
G||-----------------------------------------------------------------------------------------|
D||--3--------8---x--7--x--3--------8---x--7--x--2--------7--x--5--x--2--------7--x--5--x---|
A||--5--------10--x--8--x--5--------10--x--8--x--3--------8--x--7--x--3--------8--x--7--x---|
D||-----------------------------------------------------------------------------------------|


Guitar 2 (Right):
E||-----------------------------------------------------------------------------------------|
B||-----------------------------------------------------------------------------------------|
G||-----------------------------------------------------------------------------------------|
D||-----------8---x--7--x-----------8---x--7--x--2--------7--x--5--x--2--------7--x--5--x---|
A||--8--------10--x--8--x--8--------10--x--8--x--3--------8--x--7--x--3--------8--x--7--x---|
D||--0---------------------0----------------------------------------------------------------|


E||-----------------------------------------------------------------------------------------|
B||-----------------------------------------------------------------------------------------|
G||-----------------------------------------------------------------------------------------|
D||-----------8---x--7--x-----------8---x--7--x--2--------7--x--5--x--2--------7--x--5--x---|
A||--8--------10--x--8--x--8--------10--x--8--x--3--------8--x--7--x--3--------8--x--7--x---|
D||--0---------------------0----------------------------------------------------------------|



[Chorus]
Guitar 1:
         T      T      T      T      T        T      T      T      T      T
E||-----------------------------------------------------------------------------|
B||-----------------------------------------------------------------------------|
G||-----------------------------------------------------------------------------|
D||--5h8-12-5h8-12-5h8-12-5h8-12-5h8-12-5\4h7-12-4h7-12-4h7-12-4h7-12-4h7-12-4--|
A||-----------------------------------------------------------------------------|
D||-----------------------------------------------------------------------------|


         T      T      T      T      T        T      T      T      T      T
E||-----------------------------------------------------------------------------|
B||-----------------------------------------------------------------------------|
G||--5h8-12-5h8-12-5h8-12-5h8-12-5h8-12-5\3h7-12-3h7-12-3h7-12-3h7-12-3h7-12-3--|
D||-----------------------------------------------------------------------------|
A||-----------------------------------------------------------------------------|
D||-----------------------------------------------------------------------------|


         T      T      T      T      T          T      T      T      T      T
E||--------------------------------------------------------------------------------|
B||--------------------------------------------------------------------------------|
G||--3h8-12-3h8-12-3h8-12-3h8-12-3h8-12p8p3----------------------------------------|
D||-----------------------------------------5h8-12-5h8-12-5h8-12-5h8-12-5h8-12-5\--|
A||--------------------------------------------------------------------------------|
D||--------------------------------------------------------------------------------|


         T      T      T      T      T        T      T      T      T      T
E||-----------------------------------------------------------------------------|
B||-----------------------------------------------------------------------------|
G||-----------------------------------------------------------------------------|
D||--4h7-12-4h7-12-4h7-12-4h7-12-4h7-12-4-4h7-10-4h7-10-4h7-10-4h7-10-4h7-10-4--| [x2]
A||-----------------------------------------------------------------------------|
D||-----------------------------------------------------------------------------|


Guitar 2:
E||---------------------------------------------------------------------------------------------|
B||---------------------------------------------------------------------------------------------|
G||---------------------------------------------------------------------------------------------|
D||--8---8---8--7---7---7--10---10---10--8---8---8--1---1---1--8---8---8--7---7---7--7---7---7--| [x2]
A||--5---5---5--4---4---4--10---10---10--8---8---8--1---1---1--5---5---5--4---4---4--4---4---4--|
D||--5---5---5--4---4---4--10---10---10--8---8---8--1---1---1--5---5---5--4---4---4--4---4---4--|



[Breakdown]
Guitar 1/2:
E||--------------------------------------------------------------------------------|
B||--------------------------------------------------------------------------------|
G||--------------------------------------------------------------------------------|
D||--------------------------------0--0--------------------------------------0--0--|
A||--------------------------------0--0--------------------------------------0--0--|
D||--0-0-0-0-0-0-12-12-12-12-12-12-0--0--------0-0-0-0-0-0-12-12-12-12-12-12-0--0--|
     . . . . . . .  .  .  .  .  .              . . . . . . .  .  .  .  .  .


E||--------------------------------------------------------------------------------|
B||--------------------------------------------------------------------------------|
G||--------------------------------------------------------------------------------|
D||--------------------------------0--0--------------------------------------0-----|
A||--------------------------------0--0--------------------------------------0-----|
D||--0-0-0-0-0-0-12-12-12-12-12-12-0--0--------0-0-0-0-0-0-12-12-12-12-12-12-0-----|
     . . . . . . .  .  .  .  .  .              . . . . . . .  .  .  .  .  .


Guitar 1:
E||----------------------------------------------------------------------|
B||--3----6p5-6------6p5-6------6p5-6------6----5-6----6----6-5-6-8-6-5--|
G||--7----7---7------7---7------7---7------7----7-7----7----7-7-7-7-7-7--|
D||----------------------------------------------------------------------| x2
A||----------------------------------------------------------------------|
D||----------------------------------------------------------------------|


Guitar 2:
E||----------------------------------------------------|
B||----------------------------------------------------|
G||----------------------------------------------------|
D||--0----2------3----5---7---0----2----3----5---3--2--| x2
A||--0----2------3----5---7---0----2----3----5---3--2--|
D||--0----2------3----5---7---0----2----3----5---3--2--|
                                                 .  .

Guitar 3 (Dub):
E||-----------------------------------|--------------------------------------------------|
B||-----------------------------------|--------------------------------------------------|
G||--/14----17----19----12----12/14---|--/14----17----19----12----12/14----12----10-9-7--|
D||--/x-----x-----x-----x-----x-/x----|--/x-----x-----x-----x-----x-/x-----x-----x--x-x--|
A||--/12----15----17----10----10/12---|--/12----15----17----10----10/12----10----8--7-5--|
D||-----------------------------------|--------------------------------------------------|



[Solo]
Guitar 1:
E||-------------------------------------------------------------------------|
B||-------------------------------------------------------------------------|
G||--*/14----12-10-12---12/14--------10-12----12----*12b14----r12---10---9--|
D||------------------------------/12----------------------------------------|
A||-------------------------------------------------------------------------|
D||-------------------------------------------------------------------------|


E||-------------------------------------------------------------------------|
B||---------13----13h15-----------------------------------------------------|
G||--/14-------------------12----*12/14----------10-12--12--12b14r12---/14--|
D||------------------------------------------/12----------------------------|
A||-------------------------------------------------------------------------|
D||-------------------------------------------------------------------------|


E||-----------------------------------------10----------------------------10h12-13-12-13--|
B||--10h11---10-----------------10h13-10h13-----------------------10h11h13----------------|
G||---------------12------10h12---------------------------9/10-13-------------------------|
D||----------------------------------------------------10---------------------------------|
A||-------------------------------------------------12------------------------------------|
D||---------------------------------------------------------------------------------------|


E||--12-----/15----15\12p10-10h12-12\10p8-8h12-8h12/13\12-8h12-8----------------------------------|
B||--------------------------------------------------------------13-8-----------------------------|
G||----------------------------------------------------------------------9----9/10\9--------------|
D||-------------------------------------------------------------------10---10--------10-------12--|
A||-------------------------------------------------------------------------------------10/12-----|
D||-----------------------------------------------------------------------------------------------|


E||-----------------------10/13----------------------------------------------15/18-13--------------|
B||-----------------------------13----------------------------------------15----------15-----------|
G||--------------10h12h14----------14-------------------------------12h15----------------14--------|
D||-----------------------------------17-12-15-12-------------12h15-------------------------15-----|
A||-----10h12h15----------------------------------12-------15----------------------------------17--|
D||--12----------------------------------------------15h16-----------------------------------------|


E||-----------------------------------------------------------------------------------------10h13h15--|
B||--------------------------15----------------------------------------------------------11-----------|
G||-----------------------14----14----14----------------------------------10h12h15----12--------------|
D||--------------------15----------15----15----------------10h12h15----------------10-----------------|
A||--12----------12-17----------------------17-12-------------------10h15-----------------------------|
D||-----15-12-15----------------------------------15-12h15--------------------------------------------|


     T
E||--20-15p13p10-----------|
B||--------------11----11--|
G||-----------------12-----|
D||------------------------|
A||------------------------|
D||------------------------|


Guitar 2:
E||-------------------------------------------------------------------------------------------------|
B||-------------------------------------------------------------------------------------------------|
G||-------------------------------------------------------------------------------------------------|
D||-------------------------------------------------------------------------------------------------|
A||-----------------8----------------------------------------------8--------------------------------|
D||--0-0-0-12-12-12-12--------0-0-0-12-12-12-0-0-12-0-0-0-12-12-12-12--------0-0-0-12-12-12-0-0-12--|
     . . . .  .  .            . . . .  .  .  . . .  . . . .  .  .            . . . .  .  .  . . .


E||-------------------------------------------------------------------------------------------------|
B||-------------------------------------------------------------------------------------------------|
G||-------------------------------------------------------------------------------------------------|
D||-------------------------------------------------------------------------------------------------|
A||-----------------7----------------------------------------------7--------------------------------|
D||--0-0-0-10-10-10-10--------0-0-0-10-10-10-0-0-10-0-0-0-10-10-10-10--------0-0-0-10-10-10-0-0-10--|
     . . . .  .  .            . . . .  .  .  . . .  . . . .  .  .            . . . .  .  .  . . .


E||-------------------------------------------------------------------------------------------------|
B||-------------------------------------------------------------------------------------------------|
G||-------------------------------------------------------------------------------------------------|
D||-------------------------------------------------------------------------------------------------|
A||-----------------8----------------------------------------------8--------------------------------|
D||--0-0-0-12-12-12-12--------0-0-0-12-12-12-0-0-12-0-0-0-12-12-12-12--------0-0-0-12-12-12-0-0-12--|
     . . . .  .  .            . . . .  .  .  . . .  . . . .  .  .            . . . .  .  .  . . .


E||-------------------------------------------------------------------------------------------------|
B||-------------------------------------------------------------------------------------------------|
G||-------------------------------------------------------------------------------------------------|
D||-------------------------------------------------------------------------------------------------|
A||-----------------7----------------------------------------------7--------------------------------|
D||--0-0-0-10-10-10-10--------0-0-0-10-10-10-0-0-10-0-0-0-10-10-10-10--------0-0-0-10-10-10-10-10-0-|
     . . . .  .  .            . . . .  .  .  . . .  . . . .  .  .            . . . .  .  .  .  .  .


Guitar 2 (Left Dub):
E||-----------------------------------------------------------------------------------------|
B||-----------------------------------------------------------------------------------------|
G||-----------------------------------------------------------------------------------------|
D||--3--------8---x--7--x--3--------8---x--7--x--2--------7--x--5--x--2--------8---x--7--x--|
A||--5--------10--x--8--x--5--------10--x--8--x--3--------8--x--7--x--3--------10--x--8--x--|
D||-----------------------------------------------------------------------------------------|


E||-----------------------------------------------------------------------------------------|
B||-----------------------------------------------------------------------------------------|
G||-----------------------------------------------------------------------------------------|
D||--3--------8---x--7--x--3--------8---x--7--x--2--------7--x--5--x--2--------7--x--5--x---|
A||--5--------10--x--8--x--5--------10--x--8--x--3--------8--x--7--x--3--------8--x--7--x---|
D||-----------------------------------------------------------------------------------------|


Guitar 2 (Right Dub):
E||-----------------------------------------------------------------------------------------|
B||-----------------------------------------------------------------------------------------|
G||-----------------------------------------------------------------------------------------|
D||-----------8---x--7--x-----------8---x--7--x--2--------7--x--5--x--2--------7--x--5--x---|
A||--8--------10--x--8--x--8--------10--x--8--x--3--------8--x--7--x--3--------8--x--7--x---|
D||--0---------------------0----------------------------------------------------------------|


E||-----------------------------------------------------------------------------------------|
B||-----------------------------------------------------------------------------------------|
G||-----------------------------------------------------------------------------------------|
D||-----------8---x--7--x-----------8---x--7--x--2--------7--x--5--x--2--------7--x--5--x---|
A||--8--------10--x--8--x--8--------10--x--8--x--3--------8--x--7--x--3--------8--x--7--x---|
D||--0---------------------0----------------------------------------------------------------|



[Chorus]
Guitar 1 (Dub) (bend or whammy):
E||--13b15~--------r~-----r~-11~----b13r11-10~--|---------------------------------------------------|
B||---------------------------------------------|---------------------------------------------------|
G||---------------------------------------------|--12~------b15~------r14------/17----17b19~---r17--|
D||---------------------------------------------|---------------------------------------------------|
A||---------------------------------------------|---------------------------------------------------|
D||---------------------------------------------|---------------------------------------------------|


E||---------------------------------------------|------------------------18~--------b20~-------17~--|
B||---------------------------------------------|--16~--------20~-----------------------------------|
G||--15~------------------(w)\14----------------|---------------------------------------------------|
D||---------------------------------------------|---------------------------------------------------|
A||---------------------------------------------|---------------------------------------------------|
D||---------------------------------------------|---------------------------------------------------|


Guitar 1:
         T      T      T      T      T        T      T      T      T      T
E||-----------------------------------------------------------------------------|
B||-----------------------------------------------------------------------------|
G||-----------------------------------------------------------------------------|
D||--5h8-12-5h8-12-5h8-12-5h8-12-5h8-12-5\4h7-12-4h7-12-4h7-12-4h7-12-4h7-12-4--|
A||-----------------------------------------------------------------------------|
D||-----------------------------------------------------------------------------|


         T      T      T      T      T        T      T      T      T      T
E||-----------------------------------------------------------------------------|
B||-----------------------------------------------------------------------------|
G||--5h8-12-5h8-12-5h8-12-5h8-12-5h8-12-5\3h7-12-3h7-12-3h7-12-3h7-12-3h7-12-3--|
D||-----------------------------------------------------------------------------|
A||-----------------------------------------------------------------------------|
D||-----------------------------------------------------------------------------|


         T      T      T      T      T          T      T      T      T      T
E||--------------------------------------------------------------------------------|
B||--------------------------------------------------------------------------------|
G||--3h8-12-3h8-12-3h8-12-3h8-12-3h8-12p8p3----------------------------------------|
D||-----------------------------------------5h8-12-5h8-12-5h8-12-5h8-12-5h8-12-5\--|
A||--------------------------------------------------------------------------------|
D||--------------------------------------------------------------------------------|


         T      T      T      T      T        T      T      T      T      T
E||-----------------------------------------------------------------------------|
B||-----------------------------------------------------------------------------|
G||-----------------------------------------------------------------------------|
D||--4h7-12-4h7-12-4h7-12-4h7-12-4h7-12-4-4h7-10-4h7-10-4h7-10-4h7-10-4h7-10-4--| [x2]
A||-----------------------------------------------------------------------------|
D||-----------------------------------------------------------------------------|


Guitar 2:
E||---------------------------------------------------------------------------------------------|
B||---------------------------------------------------------------------------------------------|
G||---------------------------------------------------------------------------------------------|
D||--8---8---8--7---7---7--10---10---10--8---8---8--1---1---1--8---8---8--7---7---7--7---7---7--| [x2]
A||--5---5---5--4---4---4--10---10---10--8---8---8--1---1---1--5---5---5--4---4---4--4---4---4--|
D||--5---5---5--4---4---4--10---10---10--8---8---8--1---1---1--5---5---5--4---4---4--4---4---4--|



[Interlude / Outro]
Guitar 1/2:
E||---------------------------------------------------------------------------------------------------|
B||---------------------------------------------------------------------------------------------------|
G||---------------------------------------------------------------------------------------------------|
D||--8--8--8--8--8--8--8--8--8--8--8--8--8--8--8--8--10-10-10-10-10-10-10-10-7--7--7--7--7--7--7--7---|
A||--10-10-10-10-10-10-10-10-10-10-10-10-10-10-10-10-10-10-10-10-10-10-10-10-10-10-10-10-10-10-10-10--|
D||---------------------------------------------------------------------------------------------------|


E||---------------------------------------------------------------------------------------------------|
B||---------------------------------------------------------------------------------------------------|
G||---------------------------------------------------------------------------------------------------|
D||--8--8--8--8--8--8--8--8--8--8--8--8--8--8--8--8--8--8--8--8--8--8--8--8--10-10-10-10-8--8--7--7---| [x8]
A||--10-10-10-10-10-10-10-10-10-10-10-10-10-10-10-10-10-10-10-10-10-10-10-10-10-10-10-10-10-10-10-10--|
D||---------------------------------------------------------------------------------------------------|





*****************************
-Tablature Legend-

 h   hammer-on
 p   pull-off
 b   bend
 pb  pre-bend
 r   release bend
 ~   hold / vibrato
 .   palm mute
 /   slide up
 \   slide down
 *   pinch harmonic
 '   natural harmonic
 x   mute note
 T   tap

*****************************
Suggest correction
Give kudos to tab author, rate the tab!
1 2 3 4 5
comments
print report bad tab
guest
You may want to rate the tab now too:
select rating
Wanna post a correction for this tab? Suggest correction