Oops, an error
Loading. Please wait.

Lips Of Deceit tab

version 2
version 2

Whole song

Interactive

598 views 6 this week
no commentswrite comment
1 2 3 4 5
1 last vote to show rating
add to favorites
×
Save as Personal and add changes to this tab that will be seen only by you. Learn more ›
×
You can save this tab as Personal to edit and correct it or add notes. All changes will be seen only by you. Learn more »
launch autoscroll
font size
0
reset
how to read this tab
guitar tuner
edit
Autoscroll
slow
fast
+/-
esc
set tempo
stop
Author
Band: Avenged Sevenfold
Song: Lips of Deceit
Tuning: Drop D
Tabbed by: Peryitex


[Intro 1]

e|-------------------------------------------------------------------------------------------------------|
B|-------------------------------------------------------------------------------------------------------|
G|-2/7-----9---9h10---9----7--7-----9---9h10---9-----7/10-----12----14----12---10\5-----7----9----7---5/-|
D|-2/7-----7---7--7---7----7--8-----7---7--7---7-----7/10-----10----10----10---10\5-----5----5----5---5/-| 4x
A|-------------------------------------------------------------------------------------------------------|
D|-------------------------------------------------------------------------------------------------------|

e|-----------------|-----------------|-----------------|-----------------|
B|-----------------|-----------------|-----------------|-----------------|
G|-2---------------|---2-2-2-2-2-2-2-|-2---------------|-6-6-6-6-9-9-9-9-|
D|-2---2-2-2-2-2-2-|-2-2-2-2-2-2-2-2-|-2---2-2-2-2-2-2-|-x-x-x-x-x-x-x-x-|
A|-0---0-0-0-0-0-0-|-0-0-0-0-0-0-0-0-|-0---0-0-0-0-0-0-|-4-4-4-4-7-7-7-7-|
D|-----------------|-----------------|-----------------|-----------------|

       PM-------------|                  PM-----------|

The first riff is then repeated, but played slightly faster:

e|-------------------------------------------------------------------------------------------------------|
B|-------------------------------------------------------------------------------------------------------|
G|-2/7-----9---9h10---9----7--7-----9---9h10---9-----7/10-----12----14----12---10\5-----7----9----7---5/-|
D|-2/7-----7---7--7---7----7--8-----7---7--7---7-----7/10-----10----10----10---10\5-----5----5----5---5/-| 2x
A|-------------------------------------------------------------------------------------------------------|
D|-------------------------------------------------------------------------------------------------------|

e|-----------------|-----------------------------------------------------------|
B|-----------------|-----------------------------------------------------------|
G|-2---------------|---2-2-2-2-2-2-2-2-----------------------------------------|
D|-2---2-2-2-2-2-2-|-2-2-2-2-2-2-2-2-2-----------------------------------------|
A|-0---0-0-0-0-0-0-|-0-0-0-0-0-0-0-0-0-----------------------------------------|
D|-----------------|-----------------------------------------------------------|

       PM-------------|


[Intro 2]

e|---------------------------------------------------------------------------|
B|---------------------------------------------------------------------------|
G|-2-2---2-2-2-5---3-3---3-3-3-2---0-0---0-5---0---2-2---2-2-2---------------|
D|-0-0---0-0-0-0---0-0---0-0-0-0---0-0---0-0---0---0-0---0-0-0-5p3-----------|
A|---------------------------------------------------------------------------|
D|---------------------------------------------------------------------------|
                                                                                      2x
e|---------------------------------------------------------------------------|
B|---------------------------------------------------------------------------|
G|-0-0---0-0-0-5---7-7---7-7-7-10--9-9---9-10---12---14----------------------|
D|-0-0---0-0-0-0---0-0---0-0-0--0--0-0---0--0----0---------------------------|
A|---------------------------------------------------------------------------|
D|---------------------------------------------------------------------------|

                                                     ph

[Verse 1]

e|-------------------------|-------------------------|--------------------------|----------------------|
B|-------------------------|-------------------------|--------------------------|----------------------|
G|-2--2--2--5--3--3--3--2--|-0--0--5--0--2--2--2--0--|----------5--7--7--7--10--|-9--9--10--12--14~----|
D|-------------------------|-------------------------|-0--0--0------------------|----------------------|
A|-------------------------|-------------------------|--------------------------|----------------------|
D|-------------------------|-------------------------|--------------------------|----------------------|

                                                                                                ph

e|-------------------------|-------------------------|--------------------------|------------------|
B|-------------------------|-------------------------|--------------------------|------------8-----|
G|-2--2--2--5--3--3--3--2--|-0--0--5--0--2--2--2--0--|----------5--7--7--7--10--|-9--9--9h10-------|
D|-------------------------|-------------------------|-0--0--0------------------|-------0----------|
A|-------------------------|-------------------------|--------------------------|------------------|
D|-------------------------|-------------------------|--------------------------|------------------|


e|---------------------------------------------------------------------------|
B|-/10--8------8-------------------------------------------------------------|
G|---------10-----9h10--9--7--9--10--9--9p7------7~--------------------------|
D|-------------------------------------------10------------------------------|
A|---------------------------------------------------------------------------|
D|---------------------------------------------------------------------------|


[Bridge 1]

e|---------------------|---------------------|-----------------------|----------------------|
B|---------------------|---------------------|-----------------------|----------------------|
G|-9-10-10-10-10-9-9-9-|-9-10-10-10-10-9-9-9-|-9-12-12-12-12---12-12-|-12-14-14-14-14-9-9-9-|
D|-x--x--x--x--x-x-x-x-|-x--x--x--x--x-x-x-x-|-x--x--x--x--x----x--x-|--x--x--x--x--x-x-x-x-|
A|-7--8--8--8--8-7-7-7-|-7--8--8--8--8-7-7-7-|-7-10-10-10-10---10-10-|-10-12-12-12-12-7-7-7-|
D|---------------------|---------------------|-----------------------|----------------------|

e|---------------------|---------------------|-----------------|-----------------|
B|---------------------|---------------------|-----------------|-----------------|
G|-9-10-10-10-10-9-9-9-|-9-10-10-10-10-9-9-9-|-5---5-5-5---5-5-|-2-2-2-2---------|
D|-x--x--x--x--x-x-x-x-|-x--x--x--x--x-x-x-x-|-x---x-x-x---x-x-|-2-2-2-2-3-3-3-3-|
A|-7--8--8--8--8-7-7-7-|-7--8--8--8--8-7-7-7-|-3---3-3-3---3-3-|-0-0-0-0-3-3-3-3-|
D|---------------------|---------------------|-----------------|---------3-3-3-3-|

e|---------------------|---------------------|-----------------------|----------------------|
B|---------------------|---------------------|-----------------------|----------------------|
G|-9-10-10-10-10-9-9-9-|-9-10-10-10-10-9-9-9-|-9-12-12-12-12---12-12-|-12-14-14-14-14-9-9-9-|
D|-x--x--x--x--x-x-x-x-|-x--x--x--x--x-x-x-x-|-x--x--x--x--x----x--x-|--x--x--x--x--x-x-x-x-|
A|-7--8--8--8--8-7-7-7-|-7--8--8--8--8-7-7-7-|-7-10-10-10-10---10-10-|-10-12-12-12-12-7-7-7-|
D|---------------------|---------------------|-----------------------|----------------------|

e|---------------------|---------------------|-----------------|-----------------|
B|---------------------|---------------------|-----------------|-----------------|
G|-9-10-10-10-10-9-9-9-|-9-10-10-10-10-9-9-9-|-5---5-5-5---5-5-|-2---------------|
D|-x--x--x--x--x-x-x-x-|-x--x--x--x--x-x-x-x-|-x---x-x-x---x-x-|-2-2-2-2---------|
A|-7--8--8--8--8-7-7-7-|-7--8--8--8--8-7-7-7-|-3---3-3-3---3-3-|-0-0-0-0---3-3-3-|
D|---------------------|---------------------|-----------------|-----------3-3-3-|

                                                                   PM-----------|

[Verse 2]

e|----------------------------------------------------------------|
B|----------------------------------------------------------------|
G|-------------5-\-3-----------3-/-5-----------5-/-7-----------5--|
D|-0-----------5-\-3---3-3-3-3-3-/-5---5-5-5-5-5-/-7---7-7-7-7-5--| 4x
A|-0---0-0-0-0-3-\-1---1-1-1-1-1-/-3---3-3-3-3-3-/-5---5-5-5-5-3--|
D|-0---0-0-0-0----------------------------------------------------|

       PM-----|        PM-----|        PM-----|        PM-----|

The lead part sets in during the middle of the 2nd repeat of the riff above:

e|-------------------------------------------------|---------------------|
B|-------------------------------------------------|---------------------|
G|-----------------------------------------7-7-9-9-|-10-10-10-10-9-9-9-9-|
D|-----------------------------------------x-x-x-x-|--x--x--x--x-x-x-x-x-|
A|-----------------------------------------5-5-7-7-|--8--8--8--8-7-7-7-7-|
D|-------------------------------------------------|---------------------|

e|-----------------|------------------------|------------------------|----------------------|
B|-----------------|------------------------|------------------------|----------------------|
G|-7---7-7-7-9-9-9-|-10---10-10-10-10-10-10/|-12---12-12-12-12-12-12-|-12/14-14-14-14-9-9-9-|
D|-x---x-x-x-x-x-x-|--x----x--x--x--x--x--x-|--x----x--x--x--x--x--x-|--x--x--x--x--x-x-x-x-|
A|-5---5-5-5-7-7-7-|--8----8--8--8--8--8--8/|-10---10-10-10-10-10-10-|-10/12-12-12-12-7-7-7-|
D|-----------------|------------------------|------------------------|----------------------|

e|------------------------|------------------------|------------------|-----------------|
B|------------------------|------------------------|------------------|-----------------|
G|-9/14-14-14-14-12-12-12-|-10---10-10-10-10-10-10-|-9---9-9-9/10\9---|-7---7-7-7-5-5---|
D|-x--x--x--x--x--x--x--x-|--x----x--x--x--x--x--x-|-x---x-x-x--x-x---|-x---x-x-x-x-x---|
A|-7/12-12-12-12-10-10-10-|--8----8--8--8--8--8--8-|-7---7-7-9/-8\7---|-5---5-5-5-3-3---|
D|------------------------|------------------------|------------------|-----------------|


[Bridge 2]

e|---------------------------------------|
B|---------------------------------------|
G|-7-----10-----7-----10----7--7----7--7-|
D|-7-7-7--7-7-7-8-7-7--7-7-10-10---10-10-| 4x
A|---------------------------------------|
D|---------------------------------------|

     PM-|   |--|  |--|  |-|


[Verse 3]

e|-----------------|-----------------|-----------------|-----------------|
B|-----------------|-----------------|-----------------|-----------------|
G|-----------------|-3-3-3-3-3-3-3-3-|-5-5-5-5-5-5-5-5-|-7-7-7-7-7-7-7-7-|
D|-0-0-0-0-0-0-0-0-|-3-3-3-3-3-3-3-3-|-5-5-5-5-5-5-5-5-|-7-7-7-7-7-7-7-7-| 4x
A|-0-0-0-0-0-0-0-0-|-1-1-1-1-1-1-1-1-|-3-3-3-3-3-3-3-3-|-5-5-5-5-5-5-5-5-|
D|-0-0-0-0-0-0-0-0-|-----------------|-----------------|-----------------|

This lead part is similar to the lead part from before, but it's not exactly the same. It sets on during the
3rd repeat of the riff above:

e|-----------------|------------------------|-----------------|-------------------------|
B|-----------------|------------------------|-----------------|-------------------------|
G|-7---7-7-7-9-9-9-|-10---10-10-10-10-10-10-|-9---9-9-9-9-9-9-|-14-14-14-14-14-12-12-12-|
D|-x---x-x-x-x-x-x-|--x----x--x--x--x--x--x-|-x---x-x-x-x-x-x-|--x--x--x--x--x--x--x--x-|
A|-5---5-5-5-7-7-7-|--8----8--8--8--8--8--8-|-7---7-7-7-7-7-7-|-12-12-12-12-12-10-10-10-|
D|-----------------|------------------------|-----------------|-------------------------|

e|-------------------------|------------------------|------------------|-----------------|
B|-------------------------|------------------------|------------------|-----------------|
G|-14-14-14-14-14-12-12-12-|-10---10-10-10-10-10-10-|-9---9-9-9/10\9---|-7---7-7-7-5-5---|
D|--x--x--x--x--x--x--x--x-|--x----x--x--x--x--x--x-|-x---x-x-x--x-x---|-x---x-x-x-x-x---|
A|-12-12-12-12-12-10-10-10-|--8----8--8--8--8--8--8-|-7---7-7-9/-8\7---|-5---5-5-5-3-3---|
D|-------------------------|------------------------|------------------------------------|


[Bridge 3]

e|---------------------------------------|
B|---------------------------------------|
G|-7-----10-----7-----10----7--7----7--7-|
D|-7---7--7---7-8-7-7--7-7-10-10---10-10-| 3x
A|---------------------------------------|
D|---------------------------------------|

     PM-|    |-|  |--|  |-|

e|---------------|
B|---------------|
G|-7-----7-----7-|
D|-7-----8-----7-| 
A|---------------|
D|---------------|


[Verse 4]

e|---------------------------------------------------------------------|
B|---------------------------------------------------------------------|
G|-7-------------------------------7-----------------------------------|
D|-7-----6-----5-------------------7-----6-----5-----------------------|
A|-5-----6-----5-------------------5-----6-----5-----5-5-5-5-5-5-5-5-5-|
D|-------6-----5-----0-3-5-6-5-3-0-------6-----5-----------------------|

                                                     PM---------------|

e|---------------------------------------------------------------------|
B|---------------------------------------------------------------------|
G|-7-------------------------------7-----8-----7-----------------------|
D|-7-----6-----5-------------------7-----x-----7-----------------------|
A|-5-----6-----5-------------------5-----6-----5-----------------------|
D|-------6-----5-----0-3-5-6-5-3-0-------------------------------------|

e|---------------------------------------------------------------------|
B|---------------------------------------------------------------------|
G|-7-----------7-----8-8-8-8-8-8-8-7-----------7-----------------------|
D|-7-----6-----7-----x-x-x-x-x-x-x-7-----6-----7-----------------------|
A|-5-----6-----5-----6-6-6-6-6-6-6-5-----6-----5-----------------------|
D|-------6-------------------------------6-----------------------------|

e|---------------------------------------------------------------------|
B|---------------------------------------------------------------------|
G|-7-------------------------------------------------------------------|
D|-7-----6-----0-------------------x-x---------------------------------|
A|-5-----6-----0-------------------x-x---------------------------------|
D|-------6-----0-------------------x-x---------------------------------|


[Outro]

Had to increase the space between notes here. It's still mostly simple eight note strumming at the 
same tempo as before, but this section also introduces sixteenth notes.

e|---------------------------------|---------------------------------|
B|---------------------------------|---------------------------------|
G|---------------------------------|---------------------------------|
D|-0---0---0---0---0---0---0---0---|-2---2---2-2-2-2-2---2---2-2-2-2-|
A|-0---0---0---0---0---0---0---0---|-0---0---0-0-0-0-0---0---0-0-0-0-|
D|-0---0---0---0---0---0---0---0---|---------------------------------|

                                   PM-------------------------------|

e|---------------------------------|---------------------------------|
B|---------------------------------|---------------------------------|
G|-3---3---3---3---3---3---3---3---|---------------------------------|
D|-3---3---3---3---3---3---3---3---|-3---3---3---3---2---2---2---2---|
A|-1---1---1---1---1---1---1---1---|-3---3---3---3---2---2---2---2---|
D|---------------------------------|-3---3---3---3---2---2---2---2---|
                                                                          2x (entire section)
e|---------------------------------|---------------------------------|
B|---------------------------------|---------------------------------|
G|---------------------------------|-2---2---2---2---2---2---2---2---|
D|-0---0---0---0---0---0---0---0---|-2---2---2---2---2---2---2---2---|
A|-0---0---0---0---0---0---0---0---|-0---0---0---0---0---0---0---0---|
D|-0---0---0---0---0---0---0---0---|---------------------------------|

e|---------------------------------|---------------------------------|
B|---------------------------------|---------------------------------|
G|-3---3---3---3---3---3---3---3---|-5---5---5---5---6---6---6---6---|
D|-3---3---3---3---3---3---3---3---|-x---x---x---x---x---x---x---x---|
A|-1---1---1---1---1---1---1---1---|-3---3---3---3---4---4---4---4---|
D|---------------------------------|---------------------------------|

End on:

e|---------------|
B|---------------|
G|-7-------------|
D|-x-------------| 
A|-5-------------|
D|---------------|


************************************

| x   Dead note
| h   Hammer-on
| p   Pull-off
| /   Slide up
| \   Slide down
| ~   Vibrato
| PM  Palm mute
| ph  Pinch Harmonic

************************************
Suggest correction
Creating personal tab
Creating personal tab
You can edit any tab online and save it as your Personal.

You can edit, replace or remove any tab part or add personal notes – all changes will be seen only by you.

Personal tabs can be accessed anytime from any device, even offline.
Learn more »
Give kudos to tab author, rate the tab!
1 2 3 4 5
comments
print report bad tab
guest
You may want to rate the tab now too:
select rating
Wanna post a correction for this tab? Suggest correction