Oops, an error
Loading. Please wait.

Lost It All bass

version 1
version 1

Whole song

Interactive

2,132 views 3 this week
no commentswrite comment
1 2 3 4 5
x 4
add to favorites
×
Save as Personal and add changes to this tab that will be seen only by you. Learn more ›
×
You can save this tab as Personal to edit and correct it or add notes. All changes will be seen only by you. Learn more »
launch autoscroll
font size
0
reset
guitar tuner
edit
Autoscroll
slow
fast
+/-
esc
set tempo
stop
-------------------------------------------------------------------------------
			     LOST IT ALL - Avenged Sevenfold
-------------------------------------------------------------------------------

Tabbed By : Isaias Garcia (TexasFury)

Tuning: Drop D


     Intro - 137 bpm
     S S S S Q    E  E  E  E     S S S S Q    E  E  E  E     S S S S Q    E  E  E  E
G||---------------------------|---------------------------|---------------------------|
D||---------------------------|---------------------------|---------------------------|
A||---------------------------|---------------------------|---------------------------|
D||--0-0-0-0-0-------0-----1--|--0-0-0-0-0-------3-----7--|--0-0-0-0-0-------0-----1--|


  S S S S Q    E  E  E  E     S S S S Q    E  E  E  E     S S S S Q    E  E  E  E
---------------------------|---------------------------|---------------------------|
---------------------------|---------------------------|---------------------------|
---------------------------|---------------------------|---------------------------|
--0-0-0-0-0-------3-----3--|--0-0-0-0-0-------0-----1--|--0-0-0-0-0-------3-----7--|


  S S S S Q    E  E  E  E     S S S S Q    E  E  E  E     E  E  E  E
---------------------------|---------------------------|--------------|
---------------------------|---------------------------|--------------|
---------------------------|---------------------------|--------------|
--0-0-0-0-0-------0-----1--|--0-0-0-0-0-------3-----3--|-----3-----3--|


                                                         Verse 1
  |----3----|    |----3----|                             |--------3--------|
  Q    Q    Q    Q    Q    Q       Q    Q    H           H        H        H
--------------------------------|---------------------|-----------------------------|
--------------------------------|---------------------|-----------------------------|
--------------------------------|---------------------|-----------------------------|
--0----0----0----0----0----0----|--0------------------|--0--------0--------0--------|


  |--------3--------|
  H        H        H           Q      H        Q       Q    E  E  Q    Q
-----------------------------|-----------------------|-----------------------|
-----------------------------|-----------------------|-----------------------|
-----------------------------|-------5g8--------5----|-----------------------|
--0--------0--------0--------|--0--------------------|--6----L--0--L----6----|


  |--------3--------|           |--------3--------|
  H        H        H           H        H        H           Q      H        Q
-----------------------------|-----------------------------|-----------------------|
-----------------------------|-----------------------------|-----------------------|
-----------------------------|-----------------------------|-------5g8--------5----|
--0--------0--------0--------|--0--------0--------0--------|--0--------------------|


                          |--------3--------|           |--------3--------|
  Q    E  E  Q    Q       H        H        H           H        H        H
-----------------------|-----------------------------|-----------------------------|
-----------------------|-----------------------------|-----------------------------|
-----------------------|-----------------------------|-----------------------------|
--6----L--0--L----6----|--0--------0--------0--------|--0--------0--------0--------|


                                                  |--------3--------|
  Q      H        Q       Q    E  E  Q    Q       H        H        H
-----------------------|-----------------------|-----------------------------|
-----------------------|-----------------------|-----------------------------|
-------5g8--------5----|-----------------------|-----------------------------|
--0--------------------|--6----L--0--L----6----|--0--------0--------0--------|


  |--------3--------|
  H        H        H           Q      H        Q       Q    E  E  Q    Q
-----------------------------|-----------------------|-----------------------|
-----------------------------|-----------------------|-----------------------|
-----------------------------|-------5g8--------5----|-----------------------|
--0--------0--------0--------|--0--------------------|--6----L--0--L----6----|


  Pre-chorus 1
  E  E  E  E  E  E  E  E     E  E  E  E  E  E  E  E     Q      H        Q
--------------------------|--------------------------|-----------------------|
--------------------------|--------------------------|-----------------------|
--------------------------|--------------------------|------------------7----|
--2--2--2--2--2--2--2--2--|--2--2--2--2--2--2--2--2--|--2----3g8-------------|


  Q.     E  Q    Q       E  E  E  E  E  E  E  E     E  E  E  E  E  E  E  E
----------------------|--------------------------|--------------------------|
----------------------|--------------------------|--------------------------|
---------7--L---------|--------------------------|--------------------------|
--8--------------8----|--2--2--2--2--2--2--2--2--|--2--2--2--2--2--2--2--2--|


                                                 Chorus 1
  Q      H        Q       Q.     E  Q    Q       Q    E  E  E  E  Q       Q    Q    Q    Q
-----------------------|----------------------|------------------------|----------------------|
-----------------------|----------------------|------------------------|----------------------|
------------------7----|---------7--L---------|------------------------|----------------------|
--2----3g8-------------|--8--------------8----|--0----0--0--L--0--0----|--L----0----0----0----|


  Q    E  E  E  E  Q       Q    Q    Q    Q       Q    E  E  E  E  Q       Q    Q    Q   
Q
------------------------|----------------------|------------------------|----------------------|
------------------------|----------------------|------------------------|----------------------|
--3----3--3--L--3--3----|--L----3----3----3----|--2----2--2--L--2--2----|--L----2----2----2----|
------------------------|----------------------|------------------------|----------------------|


  Q    E  E  E  E  Q       Q    H        Q       Q     E   E  E  E  Q       Q    Q    Q  
 Q
------------------------|---------------------|--------------------------|----------------------|
------------------------|---------------------|--------------------------|----------------------|
--1----1--1--L--1--1----|--0----0--------0----|--5----(5)--5--L--5--5----|--L----5----5----5----|
------------------------|---------------------|--------------------------|----------------------|


  Q    E  E  E  E  Q       Q    Q    Q    Q       Q    E  E  E  E  Q       Q    Q    Q   
Q
------------------------|----------------------|------------------------|----------------------|
------------------------|----------------------|------------------------|----------------------|
--3----L--3--L--3--3----|--L----3----3----3----|------------------------|----------------------|
------------------------|----------------------|--3----L--3--L--3--3----|--L----3----3----3----|


                                                   |--------3--------|
  Q    E  E  E  E  Q       Q    Q    E  E  Q       H        H        H
------------------------|-----------------------|-----------------------------|
------------------------|-----------------------|-----------------------------|
------------------------|-----------------------|-----------------------------|
--5----5--5--L--5--5----|--5----3----3--3--3----|--0--------0--------0--------|


  |--------3--------|
  H        H        H           Q    Q    H           W
-----------------------------|---------------------|-------------------|
-----------------------------|---------------------|-------------------|
-----------------------------|---------------------|-------------------|
--0--------0--------0--------|--0------------------|-------------------|


  Verse 2
  |--------3--------|           |--------3--------|
  H        H        H           H        H        H           Q      H        Q
-----------------------------|-----------------------------|-----------------------|
-----------------------------|-----------------------------|-----------------------|
-----------------------------|-----------------------------|-------5g8--------5----|
--0--------0--------0--------|--0--------0--------0--------|--0--------------------|


                          |--------3--------|           |--------3--------|
  Q    E  E  Q    Q       H        H        H           H        H        H
-----------------------|-----------------------------|-----------------------------|
-----------------------|-----------------------------|-----------------------------|
-----------------------|-----------------------------|-----------------------------|
--6----L--0--L----6----|--0--------0--------0--------|--0--------0--------0--------|


                                                  |--------3--------|
  Q      H        Q       Q    E  E  Q    Q       H        H        H
-----------------------|-----------------------|-----------------------------|
-----------------------|-----------------------|-----------------------------|
-------5g8--------5----|-----------------------|-----------------------------|
--0--------------------|--6----L--0--L----6----|--0--------0--------0--------|


  |--------3--------|
  H        H        H           Q      H        Q       Q    E  E  Q    Q
-----------------------------|-----------------------|-----------------------|
-----------------------------|-----------------------|-----------------------|
-----------------------------|-------5g8--------5----|-----------------------|
--0--------0--------0--------|--0--------------------|--6----L--0--L----6----|


  |--------3--------|           |--------3--------|
  H        H        H           H        H        H           Q      H        Q
-----------------------------|-----------------------------|-----------------------|
-----------------------------|-----------------------------|-----------------------|
-----------------------------|-----------------------------|-------5g8--------5----|
--0--------0--------0--------|--0--------0--------0--------|--0--------------------|


                          Pre-chorus 2
  Q    E  E  Q    Q       E  E  E  E  E  E  E  E     E  E  E  E  E  E  E  E
-----------------------|--------------------------|--------------------------|
-----------------------|--------------------------|--------------------------|
-----------------------|--------------------------|--------------------------|
--6----L--0--L----6----|--2--2--2--2--2--2--2--2--|--2--2--2--2--2--2--2--2--|


  Q      H        Q       Q.     E  Q    Q       E  E  E  E  E  E  E  E
-----------------------|----------------------|--------------------------|
-----------------------|----------------------|--------------------------|
------------------7----|---------7--L---------|--------------------------|
--2----3g8-------------|--8--------------8----|--2--2--2--2--2--2--2--2--|


                                                                            Chorus 2A
  E  E  E  E  E  E  E  E     Q      H        Q       Q.     E  Q    Q       Q    E  E  E 
E  Q
--------------------------|-----------------------|----------------------|------------------------|
--------------------------|-----------------------|----------------------|------------------------|
--------------------------|------------------7----|---------7--L---------|------------------------|
--2--2--2--2--2--2--2--2--|--2----3g8-------------|--8--------------8----|--0----0--0--L--0--0----|


  Q    Q    Q    Q       Q    E  E  E  E  Q       Q    Q    Q    Q       Q    E  E  E  E 
Q
----------------------|------------------------|----------------------|------------------------|
----------------------|------------------------|----------------------|------------------------|
----------------------|--3----3--3--L--3--3----|--L----3----3----3----|--2----2--2--L--2--2----|
--L----0----0----0----|------------------------|----------------------|------------------------|


  Q    Q    Q    Q       Q    E  E  E  E  Q       Q    H        Q       Q     E   E  E  
 Q
----------------------|------------------------|---------------------|--------------------------|
----------------------|------------------------|---------------------|--------------------------|
--L----2----2----2----|--1----1--1--L--1--1----|--0----0--------0----|--5----(5)--5--L--5--5----|
----------------------|------------------------|---------------------|--------------------------|


  Q    Q    Q    Q       Q    E  E  E  E  Q       Q    Q    Q    Q       Q    E  E  E  E 
Q
----------------------|------------------------|----------------------|------------------------|
----------------------|------------------------|----------------------|------------------------|
--L----5----5----5----|--3----L--3--L--3--3----|--L----3----3----3----|------------------------|
----------------------|------------------------|----------------------|--3----L--3--L--3--3----|


  Q    Q    Q    Q       Q    E  E  E  E  Q       Q    Q    E  E  Q
----------------------|------------------------|-----------------------|
----------------------|------------------------|-----------------------|
----------------------|------------------------|-----------------------|
--L----3----3----3----|--5----5--5--L--5--5----|--5----3----3--3--3----|


  Chorus 2B - 70 bpm
  E.  S S S E  S S S S S S S S    E  S S S S E  S S S S S S S S    E.  S S S E  S E  S   SS S S
-------------------------------|--------------------------------|--------------------------------|
-------------------------------|--------------------------------|----------------------3g5-3-----|
--1---1-L-1-1--L-1-1-0-1-3-1-0-|-------------3--L-3-3-3-3-5-3-0-|--1---1-L-1-1--L-1--1-------5-3-|
-------------------------------|--3--3-3-L-3--------------------|--------------------------------|


  E  S S S S E  S S S S S  S  S  S    E.  S S S E  S S S S S S S S
-----------------------------------|-------------------------------|
-----------------------------------|-------------------------------|
-------------3--L-3-3-3-8p-7h-8S-0-|--1---1-L-1-1--L-1-1-0-1-3-1-0-|
--3--3-3-L-3-----------------------|-------------------------------|


                                      140 bpm
  E  S S S S E  S S S  S S  S S  S    E    E  E  E  E  E  E  E     E  E  E  E  E  E  E  E
-----------------------------------|----------------------------|--------------------------|
-------------------------5s-7-5s-3-|----------------------------|--------------------------|
-------------3--L-3-3h-5-----------|--1----1--1--1--1--1--1--1--|--3--3--3--3--3--3--3--3--|
--3--3-3-L-3-----------------------|----------------------------|--------------------------|


  275 bpm
  E    E  Q    E  E  Q       E  E  E  E  E  E  Q       Q    E  E  E  E  Q
--------------------------|-------------------------|------------------------|
--------------------------|-------------------------|------------------------|
--4----4--4----4--4--4----|--4--4--4--4--L--4--4----|--5----5--5--L--5--5----|
--------------------------|-------------------------|------------------------|


  Q    E  E  E  E  Q       Q    E  E  E  E  Q       Q    E  E  E  E  Q       Q    E  E  
 E  Q
------------------------|------------------------|------------------------|----------------------|
------------------------|------------------------|------------------------|----------------------|
--3----3--3--L--3--3----|--1----1--1--L--1--1----|--1----1--1--L--1--1----|--3----3--3--L--3--3--|
------------------------|------------------------|------------------------|----------------------|


  H        Q    Q       Q    Q    H           W                   Q    Q.     E  Q
---------------------|---------------------|-------------------|----------------------|
---------------------|---------------------|-------------------|----------------------|
--3--------3----3----|---------------------|-------------------|----------------------|
---------------------|--0------------------|-------------------|-------5------0--L----|


  Q.     E  Q    Q       W                    W                   Q    Q.     E  Q
----------------------|--------------------|-------------------|----------------------|
----------------------|--------------------|-------------------|----------------------|
----------------------|--5\----------------|--L----------------|--L-------------------|
--6------0--L----6----|--------------------|-------------------|-------5------0--L----|


                         Guitar Solo
  Q.     E  Q    Q       Q    E  E  E  E  Q       E  E  E  E  Q    E  E     Q    Q    E  
 Q
----------------------|------------------------|-------------------------|-----------------------|
----------------------|------------------------|-------------------------|-----------------------|
----------------------|------------------------|-------------------------|-----------------------|
--6------0--L----6----|--0----0--0--0--0--0----|--0--0--0--0--0----0--0--|--0----5----L--0--L----|


  Q    E  E  Q    Q       Q    E  E  E  E  Q       E  E  E  E  Q    E  E     Q    Q    E 
E  Q
-----------------------|------------------------|-------------------------|-----------------------|
-----------------------|------------------------|-------------------------|-----------------------|
-----------------------|------------------------|-------------------------|-----------------------|
--6----L--0--L----6----|--0----0--0--0--0--0----|--0--0--0--0--0----0--0--|--0----5----L--0--L----|


  Q    E  E  Q    Q       E  E  E  E  E  E  E  E     E  E  E  E  E  E  E  E
-----------------------|--------------------------|--------------------------|
-----------------------|--------------------------|--------------------------|
-----------------------|--------------------------|--------------------------|
--6----L--0--L----6----|--2--2--2--2--2--2--2--2--|--2--2--2--2--2--2--2--2--|


  Q      Q    E  E  Q       Q.     E  Q    Q       E  E  E  E  E  E  E  E
-------------------------|----------------------|--------------------------|
-------------------------|----------------------|--------------------------|
-----------------7--L----|---------7--L---------|--------------------------|
--2----3g8----L----------|--8--------------8----|--2--2--2--2--2--2--2--2--|


  E  E  E  E  E  E  E  E     Q      Q    E  E  Q       Q.     E  Q    Q
--------------------------|-------------------------|----------------------|
--------------------------|-------------------------|----------------------|
--------------------------|-----------------7--L----|---------7--L---------|
--2--2--2--2--2--2--2--2--|--2----3g8----L----------|--8--------------8----|


  Q    E  E  E  E  Q       E  E  E  E  Q    E  E     Q    Q    E  E  Q       Q    E  E  Q   Q
------------------------|-------------------------|-----------------------|-----------------------|
------------------------|-------------------------|-----------------------|-----------------------|
------------------------|-------------------------|-----------------------|-----------------------|
--0----0--0--0--0--0----|--0--0--0--0--0----0--0--|--0----5----L--0--L----|--6----L--0--L----6----|


  Q    E  E  E  E  Q       E  E  E  E  Q    E  E     Q    Q    E  E  Q       Q    E  E  Q   Q
------------------------|-------------------------|-----------------------|-----------------------|
------------------------|-------------------------|-----------------------|-----------------------|
------------------------|-------------------------|-----------------------|-----------------------|
--0----0--0--0--0--0----|--0--0--0--0--0----0--0--|--0----5----L--0--L----|--6----L--0--L----6----|


  Harmony Lead
  Q    E  E  E  E  Q       Q    Q    Q    Q       Q    E  E  E  E  Q       Q    Q    Q   
Q
------------------------|----------------------|------------------------|----------------------|
------------------------|----------------------|------------------------|----------------------|
--1----1--1--L--1--1----|--L----1----1----1----|--3----3--3--L--3--3----|--L----3----3----3----|
------------------------|----------------------|------------------------|----------------------|


  Q    E  E  E  E  Q       Q    Q    Q    Q       Q    E  E  E  E  Q       Q    E  E  E  
 Q
------------------------|----------------------|------------------------|-------------------------|
------------------------|----------------------|------------------------|-------------------------|
--4----4--4--L--4--4----|--L----4----4----4----|--5----5--5--L--5--5----|--3----3--3--L--3--3S----|
------------------------|----------------------|------------------------|-------------------------|


  Q    E  E  E  E  Q       E  E  E  E  Q    Q        Q    E  E  E  E  Q       Q    Q    Q   Q
------------------------|-------------------------|------------------------|----------------------|
------------------------|-------------------------|------------------------|----------------------|
--1----1--1--L--1--1----|--1--1--1--1--1----1S----|--3----3--3--L--3--3----|--L----3----3----3----|
------------------------|-------------------------|------------------------|----------------------|


  Q    E  E  E  E  Q       E  E  Q    E  E  Q       Q    E  E  E  E  Q
------------------------|------------------------|-------------------------|
------------------------|------------------------|-------------------------|
--4----L--4--L--4--4----|--4--4--4----4--4--4----|--5----5--5--L--5--5S----|
------------------------|------------------------|-------------------------|


  Q    E  E  E  E  Q       Q    E  E  E  E  Q       Q    Q    Q    Q       Q    E  E  E  E E  E
------------------------|------------------------|----------------------|-------------------------|
------------------------|------------------------|----------------------|-------------------------|
--3----3--3--L--3--3----|--1----1--1--L--1--1----|--L----1----1----1----|--3----3--3--3--3--3--3--|
------------------------|------------------------|----------------------|-------------------------|


                          |--------3--------|           |--------3--------|
  Q    Q    E  E  Q       H        H        H           H        H        H
-----------------------|-----------------------------|-----------------------------|
-----------------------|-----------------------------|-----------------------------|
--3----3----3--3--3----|-----------------------------|-----------------------------|
-----------------------|--0--------0--------0--------|--0--------0--------0--------|


                                            Verse 3
                                            |--------3--------|
  Q    Q    H           W                   H        H        H
---------------------|-------------------|-----------------------------|
---------------------|-------------------|-----------------------------|
---------------------|-------------------|-----------------------------|
--0------------------|-------------------|--0--------0--------0--------|


  |--------3--------|
  H        H        H           Q      H        Q       Q    E  E  Q    Q
-----------------------------|-----------------------|-----------------------|
-----------------------------|-----------------------|-----------------------|
-----------------------------|-------5g8--------5----|-----------------------|
--0--------0--------0--------|--0--------------------|--6----L--0--L----6----|


  |--------3--------|           |--------3--------|
  H        H        H           H        H        H           Q      H        Q
-----------------------------|-----------------------------|-----------------------|
-----------------------------|-----------------------------|-----------------------|
-----------------------------|-----------------------------|-------5g8--------5----|
--0--------0--------0--------|--0--------0--------0--------|--0--------------------|


                          |--------3--------|           |--------3--------|
  Q    E  E  Q    Q       H        H        H           H        H        H
-----------------------|-----------------------------|-----------------------------|
-----------------------|-----------------------------|-----------------------------|
-----------------------|-----------------------------|-----------------------------|
--6----L--0--L----6----|--0--------0--------0--------|--0--------0--------0--------|


                                                  |--------3--------|
  Q      H        Q       Q    E  E  Q    Q       H        H        H
-----------------------|-----------------------|-----------------------------|
-----------------------|-----------------------|-----------------------------|
-------5g8--------5----|-----------------------|-----------------------------|
--0--------------------|--6----L--0--L----6----|--0--------0--------0--------|


  |--------3--------|
  H        H        H           Q      H        Q       Q    E  E  Q    Q
-----------------------------|-----------------------|-----------------------|
-----------------------------|-----------------------|-----------------------|
-----------------------------|-------5g8--------5----|-----------------------|
--0--------0--------0--------|--0--------------------|--6----L--0--L----6----|


  Pre-chorus 3
  E   E  E  E  E  E  E  E     E  E  E  E  E  E  E  E     Q      H        Q
---------------------------|--------------------------|-----------------------|
---------------------------|--------------------------|-----------------------|
---------------------------|--------------------------|------------------7----|
--2---2--2--2--2--2--2--2--|--2--2--2--2--2--2--2--2--|--2----3g8-------------|


  Q.     E  Q    Q       E  E  E  E  E  E  E  E     E  E  E  E  E  E  E  E
----------------------|--------------------------|--------------------------|
----------------------|--------------------------|--------------------------|
---------7--L---------|--------------------------|--------------------------|
--8--------------8----|--2--2--2--2--2--2--2--2--|--2--2--2--2--2--2--2--2--|


                                                 Chorus 3
  Q      H        Q       Q.     E  Q    Q       Q    E  E  E  E  Q       Q    Q    Q    Q
-----------------------|----------------------|------------------------|----------------------|
-----------------------|----------------------|------------------------|----------------------|
------------------7----|---------7--L---------|------------------------|----------------------|
--2----3g8-------------|--8--------------8----|--0----0--0--L--0--0----|--L----0----0----0----|


  Q    E  E  E  E  Q       Q    Q    Q    Q       Q    E  E  E  E  Q       Q    Q    Q   
Q
------------------------|----------------------|------------------------|----------------------|
------------------------|----------------------|------------------------|----------------------|
--3----3--3--L--3--3----|--L----3----3----3----|--2----2--2--L--2--2----|--L----2----2----2----|
------------------------|----------------------|------------------------|----------------------|


  Q    E  E  E  E  Q       Q    H        Q       Q     E   E  E  E  Q       Q    Q    Q  
 Q
------------------------|---------------------|--------------------------|----------------------|
------------------------|---------------------|--------------------------|----------------------|
--1----1--1--L--1--1----|--0----0--------0----|--5----(5)--5--L--5--5----|--L----5----5----5----|
------------------------|---------------------|--------------------------|----------------------|


  Q    E  E  E  E  Q       Q    Q    Q    Q       Q    E  E  E  E  Q       Q    Q    Q   
Q
------------------------|----------------------|------------------------|----------------------|
------------------------|----------------------|------------------------|----------------------|
--3----L--3--L--3--3----|--L----3----3----3----|------------------------|----------------------|
------------------------|----------------------|--3----L--3--L--3--3----|--L----3----3----3----|


                                                   |--------3--------|
  Q    E  E  E  E  Q       Q    Q    E  E  Q       H        H        H
------------------------|-----------------------|-----------------------------|
------------------------|-----------------------|-----------------------------|
------------------------|-----------------------|-----------------------------|
--5----5--5--L--5--5----|--5----3----3--3--3----|--0--------0--------0--------|


                                Outro - 137 bpm
  |--------3--------|
  H        H        H           S S S S Q    E  E  E  E     S S S S Q    E  E  E  E
-----------------------------|---------------------------|---------------------------|
-----------------------------|---------------------------|---------------------------|
-----------------------------|---------------------------|---------------------------|
--0--------0--------0--------|--0-0-0-0-0-------0-----1--|--0-0-0-0-0-------3-----7--|


  S S S S Q    E  E  E  E     S S S S Q    E  E  E  E     E  E  E  E     Q    H.
---------------------------|---------------------------|--------------|--------------------|
---------------------------|---------------------------|--------------|--------------------|
---------------------------|---------------------------|--------------|--------------------|
--0-0-0-0-0-------0-----1--|--0-0-0-0-0-------3-----3--|-----3-----3--|-------0------------|


  W                   W                   H.              W
-------------------|-------------------|---------------|-------------------|
-------------------|-------------------|---------------|-------------------|
-------------------|-------------------|---------------|-------------------|
--L----------------|--L----------------|--L------------|--L----------------|


  |----3----|    |----3----|
  Q    Q    Q    Q    Q    Q       W                   W
--------------------------------|-------------------|-------------------||
--------------------------------|-------------------|-------------------||
--------------------------------|-------------------|-------------------||
--0----0----0----0----0----0----|-------------------|-------------------||


Duration Legend
---------------
W - whole
H - half
Q - quarter
E - 8th
S - 16th
. - note dotted

Tablature Legend
----------------
L - tied note
g - grace note
h - hammer on
p - pull off
S - shift slide
s - legato slide
/ -  slide into from below or out of upwards
\ -  slide into from above or out of downwards

Check my other tabs for Guitar Pro, Powertab, chords, guitar/bass text at
http://profile.ultimate-guitar.com/TexasFury/contributions/
Suggest correction
Creating personal tab
Creating personal tab
You can edit any tab online and save it as your Personal.

You can edit, replace or remove any tab part or add personal notes – all changes will be seen only by you.

Personal tabs can be accessed anytime from any device, even offline.
Learn more »
comments
print report bad tab
guest
You may want to rate the tab now too:
select rating
Wanna post a correction for this tab? Suggest correction