Oops, an error
Loading. Please wait.

Lost bass

version 2
version 2
809 views 3 this week
no commentswrite comment
1 2 3 4 5
x 3
add to favorites
×
Save as Personal and add changes to this tab that will be seen only by you. Learn more ›
×
You can save this tab as Personal to edit and correct it or add notes. All changes will be seen only by you. Learn more »
launch autoscroll
font size
0
reset
guitar tuner
edit
Autoscroll
slow
fast
+/-
esc
set tempo
stop
   
0:33
G(|-----------------------------------------------------------------|)
D(|-----------------------------------------------------------------|)
A(|-5-5-555-5-5-555-5-5-555-3-3-333-1-1-111-1-1-111-1-1-111-3-3-333-|) optional rhythm
D(|-----------------------------------------------------------------|)
    1 + 2 + 3 + 4 + 1 + 2 + 3 + 4 + 1 + 2 + 3 + 4 + 1 + 2 + 3 + 4 +

Bass enters
G|-------------------------------------------------------------------|
D|o-----------------------------------------------------------------o|
A|o-5-5-5-5-5-5-5-5-5-5-5-5-3-3-3-3-1-1-1-1-1-1-1-1-1-1-1-1-3-3-3-3-o|
D|-------------------------------------------------------------------|
    1 + 2 + 3 + 4 + 1 + 2 + 3 + 4 + 1 + 2 + 3 + 4 + 1 + 2 + 3 + 4 +

G|-----------------------------------------------------------------|
D|-----------------------------------------------------------------|
A|-----------------------------------------------------------------|
D|-5-5-5-5-5-5-5-5-5-5-5-5-5-5-5-5-5-5-5-5-5-5-5-5-5-5-5-5-5-5-5-5-|
   1 + 2 + 3 + 4 + 1 + 2 + 3 + 4 + 1 + 2 + 3 + 4 + 1 + 2 + 3 + 4 +

G|-----------------------------------------------------------------|
D|-----------------------------------------------------------------|
A|-1-1-1-1-1-1-1-1-1-1-1-1-1-1-1-1-1-1-1-1-1-1-1-1-1-1-1-1-1-1-1-1-|
D|-----------------------------------------------------------------|
   1 + 2 + 3 + 4 + 1 + 2 + 3 + 4 + 1 + 2 + 3 + 4 + 1 + 2 + 3 + 4 +

G|-----------------------------------------------------------------|
D|-----------------------------------------------------------------|
A|-----------------------------------------------------------------|
D|-----------------------------0-0-0---------------------------0-0-|
   1 + 2 + 3 + 4 + 1 + 2 + 3 + 4 + 1 + 2 + 3 + 4 + 1 + 2 + 3 + 4 +

1:00 verse
G|-----------------------------------------------------------------|
D|-----------------------------------------------------------------|
A|---------------------------------1-1-1-1-1-1-1-1-----------------|
D|-0-0-0-0-0-0-0-0-5-5-5-5-5-5-5-5-----------------3-3-3-3-3-3-3-3-|
   1 + 2 + 3 + 4 + 1 + 2 + 3 + 4 + 1 + 2 + 3 + 4 + 1 + 2 + 3 + 4 +

G|-----------------------------------------------------------------|
D|-----------------------------------------------------------------|
A|-----------------------------------------------------------------|
D|-4-4-4-4-4-4-4-4-5-5-5-5-5-5-5-5-2-2-2-2-2-2-2-2-3-3-3-3-3-3-3-3-|
   1 + 2 + 3 + 4 + 1 + 2 + 3 + 4 + 1 + 2 + 3 + 4 + 1 + 2 + 3 + 4 +

1:11
G|-----------------------------------------------------------------|
D|---------------------------------------------------3-3-3-3-3-3-3-|
A|-------------------------------0-1-1-1-1-1-3-3-1-----------------|
D|-0-0-0-0-0-0-0-0-5-5-5-5-5-5-5-------------------3---------------|
   1 + 2 + 3 + 4 + 1 + 2 + 3 + 4 + 1 + 2 + 3 + 4 + 1 + 2 + 3 + 4 +

G|-----------------------------------------------------------------|
D|-4-4-4-4-4-4-4-4-5-5-5-5-5-5-5-5-2-2-2-2-2-2-2-2-3-3-3-2-0-0-3-2-|
A|-----------------------------------------------------------------|
D|-----------------------------------------------------------------|
   1 + 2 + 3 + 4 + 1 + 2 + 3 + 4 + 1 + 2 + 3 + 4 + 1 + 2 + 3 + 4 +

1:22 Pre-Chorus
G|-----------------------------------------------------------------|
D|-----------------------------------------------------------------|
A|-1-1-1-1-1-1-3-1-------------------------------------------------|
D|-----------------1-1-1-1-1-1-1-1-2-2-2-2-2-2-2-2-3-3-3-3-3-3-3---|
   1 + 2 + 3 + 4 + 1 + 2 + 3 + 4 + 1 + 2 + 3 + 4 + 1 + 2 + 3 + 4 +

G|-----------------------------------------------------------------|
D|-----------------------------------------2--2--2-3--3--3-5-------|
A|---------------------------------3--3--3-------------------------|
D|-----------------------------------------------------------------|
   1 e + e 2 e + a 3 e + a 4 e + a 1 e + a 2 e + a 3 e + a 4 e + a

1:30 Chorus
G|-----------------------------------------------------------------|
D|---------------------------------------------------------5---5---|
A|---------------------------------3-3-3-3-3-3-3-3-3-3-3-3---3---3-|
D|-3-3-3-3-3-3-3-3-3-3-3-3-3-3-3-2---------------------------------|
   1 + 2 + 3 + 4 + 1 + 2 + 3 + 4 + 1 + 2 + 3 + 4 + 1 + 2 + 3 + 4 +

G|-----------------------------------------------------------------|
D|-----------------------------------------------------2-3---2-3-5-|
A|---------------5---------5-7-5-3-1-1-1-1---1-3-----3-----3-------|
D|-5-5-5-5-5-5-5---5-5-5-5-----------------------------------------|
   1 + 2 + 3 + 4 + 1 + 2 + 3 + 4 + 1 + 2 + 3 + 4 + 1 + 2 + 3 + 4 +

1:39
G|-----------------------------------------------------------------|
D|---------------------------------------------------------5---5---|
A|---------------------------------3-3-3-3-3-3-3-3-3-3-3-3---3---3-|
D|-3-3-3-3-3-3-3-3-3-3-3-3-3-3-3-2---------------------------------|
   1 + 2 + 3 + 4 + 1 + 2 + 3 + 4 + 1 + 2 + 3 + 4 + 1 + 2 + 3 + 4 +

G|-----------------------------------------------------------------|
D|-----------------------3-5-3-------------------------------------|
A|---------------5---3-5-------5-3-1-1-1-1---1-3-3-3-3-3-----------|
D|-5-5-5-5-5-5-5---5-----------------------------------------------|
   1 + 2 + 3 + 4 + 1 + 2 + 3 + 4 + 1 + 2 + 3 + 4 + 1 + 2 + 3 + 4 +

1:50 Interlude
G|-------------------------------------------------------------------|
D|o-----------------------------------------------------------------o|
A|o-5-5-5-5-5-5-5-5-5-5-5-5-3-3-3-3-1-1-1-1-1-1-1-1-1-1-1-1-3-3-3-3-o|
D|-------------------------------------------------------------------|
    1 + 2 + 3 + 4 + 1 + 2 + 3 + 4 + 1 + 2 + 3 + 4 + 1 + 2 + 3 + 4 +

2:01
G|-----------------------------------------------------------------|
D|-----------------------------------------------------------------|
A|-----------------------------------------------------------------|
D|-5-5-5-5-5-5-5-5-5-5-5-5-5-5-5-5-5-5-5-5-5-5-5-5-5-5-5-5-5-5-5-5-|
   1 + 2 + 3 + 4 + 1 + 2 + 3 + 4 + 1 + 2 + 3 + 4 + 1 + 2 + 3 + 4 +

G|-----------------------------------------------------------------|
D|-----------------------------------------------------------------|
A|-1-1-1-1-1-1-1-1-1-1-1-1-1-1-1-1-1-1-1-1-1-1-1-1-1-1-1-1-1-1-1-1-|
D|-----------------------------------------------------------------|
   1 + 2 + 3 + 4 + 1 + 2 + 3 + 4 + 1 + 2 + 3 + 4 + 1 + 2 + 3 + 4 +

G|---------------------------------|
D|---------------------------------|
A|---------------------------------|
D|-----------------------------0-0-|
   1 + 2 + 3 + 4 + 1 + 2 + 3 + 4 +

2:14 verse
G|-----------------------------------------------------------------|
D|-----------------------------------------------------------------|
A|---------------------------------1-1-1-1-1-1-1-1-----------------|
D|-0-0-0-0-0-0-0-0-5-5-5-5-5-5-5-5-----------------3-3-3-3-3-3-3-3-|
   1 + 2 + 3 + 4 + 1 + 2 + 3 + 4 + 1 + 2 + 3 + 4 + 1 + 2 + 3 + 4 +

G|-----------------------------------------------------------------|
D|-----------------------------------------------------------------|
A|-----------------------------------------------------------------|
D|-4-4-4-4-4-4-4-4-5-5-5-5-5-5-5-5-2-2-2-2-2-2-2-2-3-3-3-3-3-------|
   1 + 2 + 3 + 4 + 1 + 2 + 3 + 4 + 1 + 2 + 3 + 4 + 1 + 2 + 3 + 4 +

2:25
G|-----------------------------------------------------------------|
D|-----------------------------------------------------------------|
A|---------------------------------1-1-1-1-1-3-3-1-----------------|
D|-0-0-0-0-0-0-0-0-5-5-5-5-5-5-5-5-----------------3-3-3-3-3-3-3-3-|
   1 + 2 + 3 + 4 + 1 + 2 + 3 + 4 + 1 + 2 + 3 + 4 + 1 + 2 + 3 + 4 +

G|-----------------------------------------------------------------|
D|-----------------------------------------------5-----------------|
A|---------------------------------7-7-7-7-7-7-7---8-8-8-7-5-5-3-3-|
D|-4-4-4-4-4-4-4-4-5-5-5-5-5-5-5-5---------------------------------|
   1 + 2 + 3 + 4 + 1 + 2 + 3 + 4 + 1 + 2 + 3 + 4 + 1 + 2 + 3 + 4 +

2:36 Pre Chorus
G|-----------------------------------------------------------------|
D|-----------------------------------------------------------------|
A|-1-1-1-1-1-1-3-1-------------------------------------------------|
D|-----------------1-1-1-1-1-1-1-1-2-2-2-2-2-2-2-2-3-3-3-3-3-3-3---|
   1 + 2 + 3 + 4 + 1 + 2 + 3 + 4 + 1 + 2 + 3 + 4 + 1 + 2 + 3 + 4 +

G|-----------------------------------------------------------------|
D|-----------------------------------------2--2--2-3--3--3-5-------|
A|---------------------------------3--3--3-------------------------|
D|-----------------------------------------------------------------|
   1 e + e 2 e + a 3 e + a 4 e + a 1 e + a 2 e + a 3 e + a 4 e + a

2:44 Chorus
G|-----------------------------------------------------------------|
D|---------------------------------------------5-----5-----2-3-2---|
A|---------------------------------3-3-3-3-3-3---3-3---3-3-------3-|
D|-3-3-3-3-3-3-3-3-3-3-3-3-3-3-2-2---------------------------------|
   1 + 2 + 3 + 4 + 1 + 2 + 3 + 4 + 1 + 2 + 3 + 4 + 1 + 2 + 3 + 4 +

G|---------------------------------------------------------------5-|
D|-------------------------5-7-5---------------------------5-7-8---|
A|---------------5-------5-------5-1-1-1-1---1-3-3-3-3-3-3---------|
D|-5-5-5-5-5-5-5---5-5-5-------------------------------------------|
   1 + 2 + 3 + 4 + 1 + 2 + 3 + 4 + 1 + 2 + 3 + 4 + 1 + 2 + 3 + 4 +

2:55
G|-----------------------------------------------------------------|
D|---------------------3-----------------------5-----5-----2-3-2---|
A|-------------------3---3---2-3-5-3-3-3-3-3-3---3-3---3-3-------3-|
D|-3-3-3-3-3-3-3-3-3-------3---------------------------------------|
   1 + 2 + 3 + 4 + 1 + 2 + 3 + 4 + 1 + 2 + 3 + 4 + 1 + 2 + 3 + 4 +

G|-----------------------------------------------------------------|
D|---------------------------------------------------------2-2-3-3-|
A|---------------5---------5-7-5-3-1-1-1-1---1-3-3-3-3-3-3---------|
D|-5-5-5-5-5-5-5---5-5-5-5-----------------------------------------|
   1 + 2 + 3 + 4 + 1 + 2 + 3 + 4 + 1 + 2 + 3 + 4 + 1 + 2 + 3 + 4 +

3:05 Solo
G|-----------------------------------------------------------------|
D|-----------------------------------------------------------------|
A|---------------------------------3-3-3-3---3-3---3-3-3-3-3-3-3---|
D|-3-3-3-3---3-3---3-3-3-3-3---3-----------------------------------|
   1 + 2 + 3 + 4 + 1 + 2 + 3 + 4 + 1 + 2 + 3 + 4 + 1 + 2 + 3 + 4 +

G|-----------------------------------------------------------------|
D|-----------------------------------------------------------------|
A|---------------------------------1-1-1-1---1-3---3-3-3-3-3-5-3---|
D|-5-5-5-5---5-5---5-5-5-5-5---5-----------------------------------|
   1 + 2 + 3 + 4 + 1 + 2 + 3 + 4 + 1 + 2 + 3 + 4 + 1 + 2 + 3 + 4 +

G|-----------------------------------------------------------------|
D|-------------3---------------------------------------------------|
A|---------------------------------3-5-3-3---3-3---3-3-3-3-3-3-3-5-|
D|-3---3-3---3-----3-3---3-3---3-----------------------------------|
   1 + 2 + 3 + 4 + 1 + 2 + 3 + 4 + 1 + 2 + 3 + 4 + 1 + 2 + 3 + 4 +

G|-----------------------------------------------------5-------2---|
D|---------------------------------------------------5---5-3-5-----|
A|-------------------------------0-1-1-1-1---1-3---3---------------|
D|-5-5-5-5---5-5---5-5-5-5-5-3-5-----------------------------------|
   1 + 2 + 3 + 4 + 1 + 2 + 3 + 4 + 1 + 2 + 3 + 4 + 1 + 2 + 3 + 4 +

3:26
G|-----------------------------------------------------------------|
D|-3-3-3-3---3-3---3-3-3-3---3-3-----------------------------------|
A|---------------------------------3-3-3-3---3-3---3-3-3-3-3-3-3---|
D|-----------------------------------------------------------------|
   1 + 2 + 3 + 4 + 1 + 2 + 3 + 4 + 1 + 2 + 3 + 4 + 1 + 2 + 3 + 4 +

G|-----------------------------------------------------------------|
D|-----------------------------------------------------------------|
A|---------------------------------1-1-1-1-1-1-3-3-3-3-3-3-3---3---|
D|-5-5-5-5---5-5---5-5-5-5-5-5-5-----------------------------------|
   1 + 2 + 3 + 4 + 1 + 2 + 3 + 4 + 1 + 2 + 3 + 4 + 1 + 2 + 3 + 4 +

G|-----------------------------------------------------------------|
D|-3-3-3-3---3-3---3-3-3-3-3-3-3-----------------------------------|
A|---------------------------------3-3-3-3---3-3---3-3-3-3-3-3-3---|
D|-----------------------------------------------------------------|
   1 + 2 + 3 + 4 + 1 + 2 + 3 + 4 + 1 + 2 + 3 + 4 + 1 + 2 + 3 + 4 +

G|-----------------------------------------------------------------|
D|-----------------------------------------------------------------|
A|---------------------------------1-1-1-1-1-1-3-3-3-3-3-3-3-3-3---|
D|-5-5-5-5---5-5---5-5-5-5-5-5-5-----------------------------------|
   1 + 2 + 3 + 4 + 1 + 2 + 3 + 4 + 1 + 2 + 3 + 4 + 1 + 2 + 3 + 4 +

3:48
G|-----------------------------------------------------------------|
D|-------3---------------------------------------------------------|
A|---------------------------------3-5-3-3---3-3---3-3-3-3---3-3---|
D|-3-3-3-----3-3---3-3-3-3-3---3-----------------------------------|
   1 + 2 + 3 + 4 + 1 + 2 + 3 + 4 + 1 + 2 + 3 + 4 + 1 + 2 + 3 + 4 +

G|-----------------------------------------------------5-----------|
D|---------------------------------------------------5---5-5-7-5---|
A|---------------------------------1-1-1-1---1-3---3---------------|
D|-5-5-5-5---5-5---5-5-5-5-5-7-5-3---------------------------------|
   1 + 2 + 3 + 4 + 1 + 2 + 3 + 4 + 1 + 2 + 3 + 4 + 1 + 2 + 3 + 4 +

G|-----------------------------------------------------------------|
D|---------------------------------------------5-----5-----2-3-2---|
A|---------------------------------3-5-3-3---3---3-3---3-3-------3-|
D|-3-3-3-3---3-3---3-3-3-3-3-3-3-----------------------------------|
   1 + 2 + 3 + 4 + 1 + 2 + 3 + 4 + 1 + 2 + 3 + 4 + 1 + 2 + 3 + 4 +

G|---------------------------------------3-------------------------|
D|-------8-----8-----7-----5---7-------------------2---3---5---3---|
A|---------------------------------1-1-1---1-1-3-3---3---3---3---3-|
D|-5-5-5---5-5---5-5---5-5---5-------------------------------------|
   1 + 2 + 3 + 4 + 1 + 2 + 3 + 4 + 1 + 2 + 3 + 4 + 1 + 2 + 3 + 4 +

4:09 Solo 2
G|-----------------------------------------------------------------|
D|-----------------------------------------------------------------|
A|---------------------------------3-3-3-3---3-3---3-3-3-3-3-3-3---|
D|-3-3-3-3---3-3---3-3-3-3-3-3-3-----------------------------------|
   1 + 2 + 3 + 4 + 1 + 2 + 3 + 4 + 1 + 2 + 3 + 4 + 1 + 2 + 3 + 4 +

G|-----------------------------------------------------------------|
D|-----------------------------------------------------------------|
A|---------------------------------1-1-1-1---1-3---3-3-3-3-3-3-3---|
D|-5-5-5-5---5-5---5-5-5-5-5-5-5-----------------------------------|
   1 + 2 + 3 + 4 + 1 + 2 + 3 + 4 + 1 + 2 + 3 + 4 + 1 + 2 + 3 + 4 +

G|-----------------------------------------------------------------|
D|-----------------------------------------------------------------|
A|---------------------------------3-5-3-3---3-3---3-3-3-3-3---3---|
D|-3-3-3-3---3-3---3-3-3-3---3-3-----------------------------------|
   1 + 2 + 3 + 4 + 1 + 2 + 3 + 4 + 1 + 2 + 3 + 4 + 1 + 2 + 3 + 4 +

G|-----------------------------------------------------------------|
D|-----------------------------------------------------------------|
A|---------------------------------1-1-1-1---1-3---3-3-3-3-3-5-3---|
D|-5-5-5-5---5-5---5-5-5-5-5---5-----------------------------------|
   1 + 2 + 3 + 4 + 1 + 2 + 3 + 4 + 1 + 2 + 3 + 4 + 1 + 2 + 3 + 4 +

4:30
G|------------------------------------------------------------------|
D|o-----------------------------------------------------------------|
A|o---------------------------------3-3-3-3-3-3-3-3-3-3-3-3-3-3-3-3-|
D|--3-3-3-3-3-3-3-3-3-3-3-3-3-3-3-3---------------------------------|
    1 + 2 + 3 + 4 + 1 + 2 + 3 + 4 + 1 + 2 + 3 + 4 + 1 + 2 + 3 + 4 +

G|------------------------------------------------------------------|
D|-----------------------------------------------------------------o|
A|---------------------------------1-1-1-1-1-1-3-3-3-3-3-3-3-3-3-3-o|
D|-5-5-5-5-5-5-5-5-5-5-5-5-5-5-5-5----------------------------------|
   1 + 2 + 3 + 4 + 1 + 2 + 3 + 4 + 1 + 2 + 3 + 4 + 1 + 2 + 3 + 4 +

4:52 Outro
G|-----------------------------------------------------------------|
D|-----------------------------------------------------------------|
A|--------/12b------------/12b-------------/12b--------------------|
D|-3---------------3---------------3---------------3--------------\|
   1 + 2 + 3 + 4 + 1 + 2 + 3 + 4 + 1 + 2 + 3 + 4 + 1 + 2 + 3 + 4 +
Tabbed by Dave Vucko

            
            
Suggest correction
Creating personal tab
Creating personal tab
You can edit any tab online and save it as your Personal.

You can edit, replace or remove any tab part or add personal notes – all changes will be seen only by you.

Personal tabs can be accessed anytime from any device, even offline.
Learn more »
Give kudos to tab author, rate the tab!
1 2 3 4 5
comments
print report bad tab
guest
You may want to rate the tab now too:
select rating
Wanna post a correction for this tab? Suggest correction