Oops, an error
Loading. Please wait.

Lost Tab

version 2
version 2
18,412 views 129 this week
16 commentsread comments
1 2 3 4 5
x 22
add to favorites
launch autoscroll
font size
0
reset
how to read this tab
guitar tuner
Autoscroll
slow
fast
+/-
esc
set tempo
stop
Help us to improve Ultimate-Guitar.com Take our survey!
×
Author
Difficulty
advanced
Lost
Avenged Sevenfold


Transcribed by Seth "Shadows" Sanders {F.u.c.kallyourfalsebeauty@hotmail.com}
 
Dropped D (D A D G B E)

D5
x 5 7 7 x x 

C5
x 3 5 5 x x 

Bb5
x 1 3 3 x x 

D5(type 2)
x 5 7 x x x 

C5(type 2)
x 3 5 x x x

Bb5(type 2)
x 1 3 x x x 


Gtr I (D A D G B E) - 'Rhythm I'
Gtr II (D A D G B E) - 'Rhythm II'
Gtr III (D A D G B E) - 'Lead I'
Gtr IV (D A D G B E) - 'Lead II'
Gtr V (D A D G B E) - 'Lead III'
Gtr VI (D A D G B E) - 'Lead IV'


 Intro
  Q=92
 4/4
  Gtr III
    ~~~    ~                        ~~~~~~~~~~~~~~~~~~~~~~~~~~~
    E S  S E  E E  E    E  E    a   W
|-----------------------------|-8s=10-------------------------|
|---------------------/10-10\-|-------------------------------|
|-----9h10p9----9h10\---------|-------------------------------|
|-/12--------12---------------|-------------------------------|
|-----------------------------|-------------------------------|
|-----------------------------|-------------------------------|
|
| Gtr IV
|                                   ~~~    ~
|   W                               E S  S E  E E  E    E  E
|-----------------------------|-------------------------------|
|-----------------------------|-----------------------/10-10\-|
|-----------------------------|-------9h10p9----9h10\---------|
|-----------------------------|---/12--------12---------------|
|-----------------------------|-------------------------------|
|-----------------------------|-------------------------------|


 ~~~~~~~     ~                        ~~~
      E S  S E  E E  E    E  E    a   W
|-------------------------------|-8s=10--------------------------|
|-----------------------/10-10\-|--------------------------------|
|-------9h10p9----9h10\---------|--------------------------------|
|---/12--------12---------------|--------------------------------|
|-------------------------------|--------------------------------|
|-------------------------------|--------------------------------|
|
|     ~~~~~~~~~~~~~~~~~~~~~~~~~~~~~~~~~~     ~
| a   W                               E S  S E  E E  E    E  E
|-8s=10-------------------------|--------------------------------|
|-------------------------------|-----------------------/10-10\--|
|-------------------------------|-------9h10p9----9h10\----------|
|-------------------------------|---/12--------12----------------|
|-------------------------------|--------------------------------|
|-------------------------------|--------------------------------|


  Gtr II
    W                                   E S  S E  E E  E    E  E
    |                                   | |  | |  | |  |    |  |
    o                                   o o  o o  o o  o    o  o

  Gtr V
    ~~~      ~~                         ~~~~~~~~~~~~~~~~~~~~~~~~~~~
    E  S  S  E  E  E  E    E  E     a   W
|--------------------------------|--8s=10-------------------------|
|------------------------/10-10\-|--------------------------------|
|------9h10p=9-----9h10\---------|--------------------------------|
|-/12----------12----------------|--------------------------------|
|--------------------------------|--------------------------------|
|--------------------------------|--------------------------------|
|
| Gtr IV
|   ~~~~~~~~~~~~~~~~~~~~~~~~~~~~~~~~~~~~~~     ~
|   W                                   E S  S E  E E  E    E  E
|-/10----------------------------|--------------------------------|
|--------------------------------|------------------------/10-10\-|
|--------------------------------|--------9h10p9----9h10\---------|
|--------------------------------|----/12--------12---------------|
|--------------------------------|--------------------------------|
|--------------------------------|--------------------------------|
|
| Gtr I
|                                       ~~~
|   E  S  S  E  E  E  E    E  E     a   W
|--------------------------------|-10s=13-------------------------|
|------------------------/15-15\-|--------------------------------|
|-----12h14p12----12h14\---------|--------------------------------|
|-/15----------15----------------|--------------------------------|
|--------------------------------|--------------------------------|
|--------------------------------|--------------------------------|


      W                                   E  S  S E  E E  E    E  E
      |                                   |  |  | |  | |  |    |  |
      o                                   o  o  o o  o o  o    o  o

 ~~~~~~~       ~~                         ~~~~
      E  S  S  E  E  E  E    E  E     a   W
|----------------------------------|--8s=10----------------------------|
|--------------------------/10-10\-|-----------------------------------|
|--------9h10p=9-----9h10\---------|-----------------------------------|
|---/12----------12----------------|-----------------------------------|
|----------------------------------|-----------------------------------|
|----------------------------------|-----------------------------------|
|
|     ~~~~~~~~~~~~~~~~~~~~~~~~~~~~~~~~~~~~~~~     ~
| a   W                                   E  S  S E  E E  E    E  E
|-8s=10----------------------------|-----------------------------------|
|----------------------------------|-------------------------/10-10\---|
|----------------------------------|---------9h10p9----9h10\-----------|
|----------------------------------|----/12---------12-----------------|
|----------------------------------|-----------------------------------|
|----------------------------------|-----------------------------------|
|
|                                         ~~~~
|     E  S  S  E  E  E  E    E  E     a   H.                   E  E
|----------------------------------|-10s=13-------------------13p12\---|
|--------------------------/15-15\-|-----------------------------------|
|-------12h14p12----12h14\---------|-----------------------------------|
|---/15----------15----------------|-----------------------------------|
|----------------------------------|-----------------------------------|
|----------------------------------|-----------------------------------|


    H                  H                  E  E   E  S  S  E  S  S  E   E
    |                  |                  |  |   |  |  |  |  |  |  |   |
    o                  o                  o  o   o  o  o  o  o  o  o   o

  Gtr III
                                             ~~~
    E     E  E  S  S   E   S  S  E  E     E  H.                       +E
|-/10---------------------------------|------------------------------------|
|--------11----11---------------------|------------------------------------|
|-----------12----12------12----------|------------------------------------|
|---------------------12-----12-------|------8------------------------(8)\-|
|-------------------------------13p10-|---8--------------------------------|
|-------------------------------------|------------------------------------|
|
| Gtr I
|                                            ~~~
|   E     E  E  S  S   E   S  S  E  E     E  H.                       +E
|-------------------------------------|------------------------------------|
|-/11---------------------------------|------------------------------------|
|--------12----12---------------------|------------------------------------|
|-----------12----12------12----------|------------------------------------|
|---------------------13-----13p10----|--12p10-----------------------(10)\-|
|----------------------------------13-|------------------------------------|
|
| Gtr IV
|                      ~~~~
|   H                 +H                  E  E   E  S  S  E  S  S  E   E
|-------------------------------------|-/10--------------------------------|
|--10b11-------------(10)-------------|-----11-----11----------------------|
|-------------------------------------|---------12----12----12-------------|
|-------------------------------------|------------------12----12----------|
|-------------------------------------|---------------------------13p=10s==|
|-------------------------------------|------------------------------------|


    W                                E  E   E  S  S  E  S  S  E   E
    |                                |  |   |  |  |  |  |  |  |   |
    o                                o  o   o  o  o  o  o  o  o   o

                                        ~~~
    E  E  E  S  S  E  S  S  E  E     E  H.                       +E
|-/10----------------------------|-------------------------------------||
|-----11----11-------------------|-------------------------------------||
|--------12----12----12----------|-------------------------------------||
|-----------------12----12-------|------8------------------------(8)\--||
|--------------------------13p10-|---8---------------------------------||
|--------------------------------|-------------------------------------||
|
|                                       ~~~
|   E  E  E  S  S  E  S  S  E  E     E  H.                       +E
|--------------------------------|-------------------------------------||
|-/11----------------------------|-------------------------------------||
|-----12----12-------------------|-------------------------------------||
|--------12----12----12----------|-----12-----------------------(12)\--||
|-----------------13----13p10----|--12---------------------------------||
|-----------------------------13-|-------------------------------------||
|
|   ~~~
|   W                                E  E   E  S  S  E  S  S  E   E
|--------------------------------|-/10---------------------------------||
|--------------------------------|-----11-----11-----------------------||
|--------------------------------|---------12----12----12--------------||
|--------------------------------|------------------12----12-----------||
|--12----------------------------|---------------------------13p=10----||
|--------------------------------|-------------------------------------||


 Pre-Verse
  D5(type 2)                   C5(type 2)    Bb5(type 2)                 C5(type
  Gtrs I, II
   S  S S  S S S  S S S S  S S  S  S  S S     S S S  S S S  S S S S  S S  E  E
   |  | |  | | |  | | | |  | |  |  |  | |     | | |  | | |  | | | |  | |  |  |
   /  / /  / / /  / / / /  / /  /  /  / /     / / /  / / /  / / / /  / /  /  /

  Gtr III
   ~~~       ~~                               ~~~~~~~~~~~~~~~~~~~~~~~~~~~~~~~~~~
   E    S  S E    E   E    E    E     E       W
|------------------------------10----10---|--13--------------------------------|
|-------8h10p8--------8h==10---10----10---|--15--------------------------------|
|-10----9h10p9---10---9h==10--------------|------------------------------------|
|-12-------------12-----------------------|------------------------------------|
|-----------------------------------------|------------------------------------|
|-----------------------------------------|------------------------------------|
|  E    S  S E    E   E    E    E     E       W
|   ^^^^^^^^^^^^^^^^^^^^^^^^^^ LOWER AND HIGHER MELODIES
| Gtr IV
|  ~~~                                        ~~       ~~
|  H.                           Q             E   S  S E    E   E    E    E  E
|-----------------------------------------|------------------------------17-15-|
|-----------------------------------------|-------8h10p8--------8h==10---18-17-|
|-----------------------------------------|--10---9h10p9---10---9h==10---------|
|-----------------------------------------|--12------------12------------------|
|-/8----------------------------7\--------|------------------------------------|
|-----------------------------------------|------------------------------------|
                                              E   S  S E    E   E    E    E  E


  D5(type 2)                  C5(type 2)  Bb5(type 2)                 C5(type 2)
   S S S  S S S  S S S S  S S  S S  S S    S S S  S S S  S S S S  S S  E  E
   | | |  | | |  | | | |  | |  | |  | |    | | |  | | |  | | | |  | |  |  |
   / / /  / / /  / / / /  / /  / /  / /    / / /  / / /  / / / /  / /  /  /

 ~~~~       ~~                             ~~
   E   S  S E    E   E    E    E    E      W
|-----------------------------10---10---|-13---------------------------------|
|------8h10p8--------8h==10---10---10---|-15---------------------------------|
|-10---9h10p9---10---9h==10-------------|------------------------------------|
|-12------------12----------------------|------------------------------------|
|---------------------------------------|------------------------------------|
|---------------------------------------|------------------------------------|
|  E   S  S E    E   E    E    E    E      W
|
|  ~~~~~~~~~~~~~~~~~~~~~~~~~~~~~~~~~~~~~~~~~~       ~~
|  W                                       E   S  S E    E   E    E    E  E
|-13------------------------------------|-----------------------------13-15--|
|-15------------------------------------|------8h10p8--------8h==10---15-17--|
|---------------------------------------|-10---9h10p9---10---9h==10----------|
|---------------------------------------|-12------------12-------------------|
|---------------------------------------|------------------------------------|
|---------------------------------------|------------------------------------|
   W                                       E   S  S E    E   E    E    E  E


  D5(type 2)                           C5(type Bb5(type 2)                           C5(type 2)D5(type
  Gtrs I, II
   S    S  S S  S S  S  S   S  S  S  S  E  E    S    S  S  S  S S  S  S   S  S  S  S  E  E
   |    |  | |  | |  |  |   |  |  |  |  |  |    |    |  |  |  | |  |  |   |  |  |  |  |  |
   /    /  / /  / /  /  /   /  /  /  /  /  /    /    /  /  /  / /  /  /   /  /  /  /  /  /

  Gtr III
                                                        ~~~
   E       E    E    S  S   E     S  S  E  E    E       H.                              +E
|-10-----------------------------------------|-----------------------------------------------|
|-11------11--------11-----------------------|-----------------------------------------------|
|---------12---12---12-12--------12----------|-----------------------------------------------|
|--------------12------12--12----12-12-------|----------8-------------------------------(8)\-|
|--------------------------13-------13-13p10-|--8--------------------------------------------|
|--------------------------------------17-13-|-----------------------------------------------|
|  E       E    E    S  S   E     S  S  E  E
|
| Gtr IV
|                           ~~~~
|  H                       +H                   E       E     E    S  S   E     S  S  E  E
|--------------------------------------------|-10--------------------------------------------|
|-10b11-------------------(10)---------------|-11------11---------11-------------------------|
|--------------------------------------------|---------12----12---12-12--------12------------|
|--------------------------------------------|---------------12------12--12----12-12---------|
|--------------------------------------------|---------------------------13-------13-13p10---|
|--------------------------------------------|---------------------------------------17-13---|
|                                               E       E     E    S  S   E     S  S  E  E
|
| Gtr V
|                           ~~~~                                          ~~~~
|  H                       +H                   H                        +H
|--8b10--------------------(8)---------------|-----------------------------------------------|
|--------------------------------------------|-10b11--------------------(10)-----------------|
|--------------------------------------------|-----------------------------------------------|
|--------------------------------------------|-----------------------------------------------|
|--------------------------------------------|-----------------------------------------------|
|--------------------------------------------|-----------------------------------------------|


          2)                           C5(type 2)Bb5(type 2)                             C5(type 2)
   S    S  S  S  S S  S  S  S  S  S  S  E  E      S    S  S  S  S S  S  S   S    S  S  S  E  E
   |    |  |  |  | |  |  |  |  |  |  |  |  |      |    |  |  |  | |  |  |   |    |  |  |  |  |
   /    /  /  /  / /  /  /  /  /  /  /  /  /      /    /  /  /  / /  /  /   /    /  /  /  /  /

                                                          ~~~
   E       E     E    S  S  E     S  S  E  E      E       H.                                +E
|-10-------------------------------------------|-------------------------------------------------||
|-11------11---------11------------------------|-------------------------------------------------||
|---------12----12---12-12-------12------------|-------------------------------------------------||
|---------------12------12-12----12-12---------|----------8---------------------------------(8)\-||
|--------------------------13-------13-13p10---|--8----------------------------------------------||
|--------------------------------------17-13---|-------------------------------------------------||
|  E       E     E    S  S  E     S  S  E  E
|
|          ~~~
|  E       H.                             +E      E       E     E    S  S   E       S  S  E  E
|----------------------------------------------|-10----------------------------------------------||
|----------------------------------------------|-11------11---------11---------------------------||
|----------------------------------------------|---------12----12---12-12----------12------------||
|----------8------------------------------(8)\-|---------------12------12--12------12-12---------||
|--8-------------------------------------------|---------------------------13---------13-13p10\--||
|----------------------------------------------|-----------------------------------------17-13\--||
|                                                 E       E     E    S  S   E       S  S  E  E
|
|                                                                           \1.5
|                           ~~~
|  H                       +H                     H                        +H
|--8b10--------------------(8)-----------------|-------------------------------------------------||
|----------------------------------------------|-10b11--------------------(10)-------------------||
|----------------------------------------------|-------------------------------------------------||
|----------------------------------------------|-------------------------------------------------||
|----------------------------------------------|-------------------------------------------------||
|----------------------------------------------|-------------------------------------------------||


 Post-Verse
  Gtr II
  PM----------|     PM------|   PM--------|   PM--|   PM  PM---
  T   T T T T T S T T T T T T S T T T T T T S T T T T T T T T
|-------------------------------------------------------------|
|-------------------------------------------------------------|
|-------------------------------------------------------------|
|-7---7-7-7-7-7-8-7-5-5-5-5-5-7-------------5-------5---5-----|
|-------------------------------8-8-8-8-8-8---7-7-7---7---7-7-|
|-------------------------------------------------------------|
|
| Gtr I
|                                                     PM-------
| H..                                                 S   S
|-------------------------------------------------------------|
|-------------------------------------------------------------|
|-------------------------------------------------------------|
|-------------------------------------------------------------|
|-----------------------------------------------------0---0---|
|-----------------------------------------------------0---0---|


 ------------|     PM------|   PM--------|   PM|   PM  PM--|
  T T T T T  T S T T T T T T S T T T T T T S T T T T T T T T
|------------------------------------------------------------||
|------------------------------------------------------------||
|------------------------------------------------------------||
|-7-7-7-7-7--7-8-7-5-5-5-5-5-7-------------5-----5---5-------||
|------------------------------8-8-8-8-8-8---7-7---7---7-5-7-||
|------------------------------------------------------------||
|
|--------------------------------------------------------|
| e       H.                                         S   S
|------------------------------------------------------------||
|------------------------------------------------------------||
|------------------------------------------------------------||
|------------------------------------------------------------||
|-0--------------------------------------------------0---0---||
|-0--------------------------------------------------0---0---||


   Verse
    Gtrs I, II
    S S S S S S  S S  S S S S  S S S S    S S S S  S S S S  S S S S  S S  S S
||-------------------------------------|---------------------------------------|
||o------------------------------------|---------------------------------------|
||-------------------------------------|--3-3-3-3--3-3-3-3---------------------|
||--0-0-0-0-0-0--0-0--5-5-5-5--5-5-5-5-|--3-3-3-3--3-3-3-3--3-3-3-3--3-3--3-3--|
||o-0-0-0-0-0-0--0-0--5-5-5-5--5-5-5-5-|--1-1-1-1--1-1-1-1--3-3-3-3--3-3--3-3--|
||--0-0-0-0-0-0--0-0--5-5-5-5--5-5-5-5-|--------------------3-3-3-3--3-3--3-3--|
|
|   Gtr V
|   Q       E    E    Q        Q          Q        Q        Q        E    E
||-------------------------------------|---------------------------------------|
||o------------------------------------|---------------------------------------|
||--7-------9---10---15-------15-------|-15-------17-------10-------12---14----|
||--x-------x----x----x--------x-------|--x--------x--------x--------x----x----|
||o-5-------7----8---13-------13-------|-13-------15--------8-------10---12----|
||-------------------------------------|---------------------------------------|


   S S S S  S S  S S  S S S S  S S  S S    E E  E  E  S S S S  S S  S S
|---------------------------------------|--------------------------------||
|---------------------------------------|-------------------------------o||
|---------------------7-7-7-7--7-7--7-7-|--------------------------------||
|--7-7-7-7--7-7--7-7--8-8-8-8--8-8--8-8-|--2-2--2--2--3-3-3-3--3-3--3-3--||
|--5-5-5-5--5-5--5-5--5-5-5-5--5-5--5-5-|--3-3--3--3--3-3-3-3--3-3--3-3-o||
|--4-4-4-4--4-4--4-4--------------------|--2-2--2--2--3-3-3-3--3-3--3-3--||
|
|  Q        E    E    Q        E    E      Q    E  E  Q        E    E
|---------------------------------------|--------------------------------||
|---------------------------------------|-------------------------------o||
|-14-------14---14---15-------14---15---|-12---12-12-14-------12---14----||
|--x--------x----x----x--------x----x---|--x----x--x--x--------x----x----||
|-12-------12---12---13-------12---13---|-10---10-10-12-------10---12---o||
|---------------------------------------|--------------------------------||


 Pre-Chorus
   S S  S S S E    S  S S S S S E S    S S  S S  S E    S  S S E E E
|-----------------------------------|--------------------------------|
|-----------------------------------|--------------------------------|
|--3-3--3-3-3-3----3----------------|--------------------------------|
|--3-3--3-3-3-3----3--1-1-1-1-1-1-1-|--2-2--2-2--2-2----2--3-3-3-3-3-|
|--1-1--1-1-1-1----1--1-1-1-1-1-1-1-|--3-3--3-3--3-3----3--3-3-3-3-3-|
|---------------------1-1-1-1-1-1-1-|--2-2--2-2--2-2----2--3-3-3-3-3-|
|
|  E    E   E    E    H                E    E    E    E    H
|-----------------------------------|--------------------------------|
|-----------------------------------|--------------------------------|
|-10---10---9---10---12-------------|-12---12---10---12---14---------|
|--x----x---x----x----x-------------|--x----x----x----x----x---------|
|--8----8---7----8---10-------------|-10---10----8---10---12---------|
|-----------------------------------|--------------------------------|


  Gtrs I, II
  PM--------|     PM------|   PM----------------|       ~
  T T T T T T S T T T T T T S T T T T T T S T T T T T T S
|----------------------------------------------------------||
|----------------------------------------------------------||
|----------------------------------------------------------||
|-7-7-7-7-7-7-8-7-5-5-5-5-5-7---------------------5-5-8-8--||
|-----------------------------8-8-8-8-8-8-5-5-7-7----------||
|----------------------------------------------------------||


   Chorus
    Gtr IV
     S  S  S  S  S  S  S  S  S  S  S  S  S  S  S  S
||--------------------------------------------------|
||o-11p10-------11p10-13p10-11p10-------11p10-13p10-|
||--------10----------------------10----------------|
||-----------10----------------------10-------------|
||o-------------------------------------------------|
||--------------------------------------------------|
|
|   Gtrs I, II
|    S  S  S  S  S  S  E     S  S  S  S  S  S  E
||--------------------------------------------------|
||o-------------------------------------------------|
||--------------------------------------------------|
||---3--3--3--3--3--3--3-----3--3--3--3--3--3--3----|
||o--3--3--3--3--3--3--3-----3--3--3--3--3--3--3----|
||---3--3--3--3--3--3--3-----3--3--3--3--3--3--3----|


   S  S  S  S  S  S  S  S  S  S  S  S  S  S  S  S
|-13p12-------13p12-15p12-13p12-------13h17-15h18--|
|-------13----------------------13-----------------|
|----------12----------------------12--------------|
|--------------------------------------------------|
|--------------------------------------------------|
|--------------------------------------------------|
|
|  S  S  S  S  S  S  E     S  S  S  S  S  S  E
|--------------------------------------------------|
|--------------------------------------------------|
|--5--5--5--5--5--5--5-----5--5--5--5--5--5--5-----|
|--5--5--5--5--5--5--5-----5--5--5--5--5--5--5-----|
|--3--3--3--3--3--3--3-----3--3--3--3--3--3--3-----|
|--------------------------------------------------|


                                                    1.
   S  S  S  S  S  S  S  S  S  S  S  S  S  S  S  S    S  S  S  S  S  S  S  S  S  S  S  S  S  S  S  S
|-15----------------15-18-15----------------17-18-|-------------------------------------------15-----||
|----15----------15----------15----------15-------|-18-------17-------------18p17-------18p17----17-o||
|-------15----15----------------15----15----------|----17-------17----------------17-----------------||
|----------17----------------------17-------------|-------17-------17p15-------------17--------------||
|-------------------------------------------------|----------------------17-------------------------o||
|-------------------------------------------------|--------------------------------------------------||
|
|  S  S  S  S  S  S  E     S  S  S  S  S  S  S  S    S  S  S  S  E     E     S  S  S  S  S  S  S  S
|-------------------------------------------------|--------------------------------------------------||
|-------------------------------------------------|-------------------------------------------------o||
|-------------------------------------------------|--3--3--3--3--3-----3-----5--5--5--5--5--5--5--5--||
|--5--5--5--5--5--5--5-----5--5--5--5--5--5--5--5-|--3--3--3--3--3-----3-----5--5--5--5--5--5--5--5--||
|--5--5--5--5--5--5--5-----5--5--5--5--5--5--5--5-|--1--1--1--1--1-----1-----3--3--3--3--3--3--3--3-o||
|--5--5--5--5--5--5--5-----5--5--5--5--5--5--5--5-|--------------------------------------------------||


  2.
   S  S  S  S  S  S  S  S  S  S  S  S  S  S  S  S
|-------------------------------------------17h18-||
|-18-------17-------------18p17-------18p17-------||
|----17-------17----------------17----------------||
|-------17-------17p15-------------17-------------||
|----------------------17-------------------------||
|-------------------------------------------------||
|
|  S  S  S  S  E     E     S  S  S  S  q
|-------------------------------------------------||
|-------------------------------------------------||
|--3--3--3--3--3-----3-----5--5--5--5--5----------||
|--3--3--3--3--3-----3-----5--5--5--5--5----------||
|--1--1--1--1--1-----1-----3--3--3--3--3----------||
|-------------------------------------------------||


 Pre-Verse
  D5(type 2)                  C5(type 2)  Bb5(type 2)                 C5(type
  Gtrs I, II
   S S S  S S S  S S S S  S S  S S  S S    S S S  S S S  S S S S  S S  E  E
   | | |  | | |  | | | |  | |  | |  | |    | | |  | | |  | | | |  | |  |  |
   / / /  / / /  / / / /  / /  / /  / /    / / /  / / /  / / / /  / /  /  /

  Gtr III
   ~~       ~~                             ~~~~~~~~~~~~~~~~~~~~~~~~~~~~~~~~~~
   E   S  S E    E   E    E    E    E      W
|-----------------------------10---10---|-13--------------------------------|
|------8h10p8--------8h==10---10---10---|-15--------------------------------|
|-10---9h10p9---10---9h==10-------------|-----------------------------------|
|-12------------12----------------------|-----------------------------------|
|---------------------------------------|-----------------------------------|
|---------------------------------------|-----------------------------------|
|  E   S  S E    E   E    E    E    E      W
|
| Gtr IV
|                                          ~~       ~~
|  W                                       E   S  S E    E   E    E    E  E
|---------------------------------------|-----------------------------17-15-|
|---------------------------------------|------8h10p8--------8h==10---18-17-|
|---------------------------------------|-10---9h10p9---10---9h==10---------|
|---------------------------------------|-12------------12------------------|
|---------------------------------------|-----------------------------------|
|---------------------------------------|-----------------------------------|
                                           E   S  S E    E   E    E    E  E


  D5(type 2)                  C5(type 2)  Bb5(type 2)                 C5(type 2)
   S S S  S S S  S S S S  S S  S S  S S    S S S  S S S  S S S S  S S  E  E
   | | |  | | |  | | | |  | |  | |  | |    | | |  | | |  | | | |  | |  |  |
   / / /  / / /  / / / /  / /  / /  / /    / / /  / / /  / / / /  / /  /  /

 ~~~~       ~~                             ~~
   E   S  S E    E   E    E    E    E      W
|-----------------------------10---10---|-13----------------------------------|
|------8h10p8--------8h==10---10---10---|-15----------------------------------|
|-10---9h10p9---10---9h==10-------------|-------------------------------------|
|-12------------12----------------------|-------------------------------------|
|---------------------------------------|-------------------------------------|
|---------------------------------------|-------------------------------------|
|  E   S  S E    E   E    E    E    E      W
|
|  ~~~~~~~~~~~~~~~~~~~~~~~~~~~~~~~~~~~~~~~~~~       ~~
|  W                                       E   S  S E    E   E    E    E  E
|-13------------------------------------|-----------------------------13-15---|
|-15------------------------------------|------8h10p8--------8h==10---15-17---|
|---------------------------------------|-10---9h10p9---10---9h==10-----------|
|---------------------------------------|-12------------12--------------------|
|---------------------------------------|-------------------------------------|
|---------------------------------------|-------------------------------------|
   W                                       E   S  S E    E   E    E    E  E


  D5(type 2)                           C5(type Bb5(type 2)                      C5(type 2)D5(type
  Gtrs I, II
   S    S  S S  S S  S  S   S  S  S  S  E  E    S S  S  S  S S  S  S  S S  S  S  E  E
   |    |  | |  | |  |  |   |  |  |  |  |  |    | |  |  |  | |  |  |  | |  |  |  |  |
   /    /  / /  / /  /  /   /  /  /  /  /  /    / /  /  /  / /  /  /  / /  /  /  /  /

  Gtr III
                                                     ~~~
   E       E    E    S  S   E     S  S  E  E    E    H.                            +E
|-10-----------------------------------------|------------------------------------------|
|-11------11--------11-----------------------|------------------------------------------|
|---------12---12---12-12--------12----------|------------------------------------------|
|--------------12------12--12----12-12-------|-------8-----------------------------(8)\-|
|--------------------------13-------13-13p10-|--8---------------------------------------|
|--------------------------------------17-13-|------------------------------------------|
|  E       E    E    S  S   E     S  S  E  E
|
| Gtr IV
|                           ~~~~
|  H                       +H                   E    E     E    S  S  E    S  S  E  E
|--------------------------------------------|-10---------------------------------------|
|-10b11-------------------(10)---------------|-11---11---------11-----------------------|
|--------------------------------------------|------12----12---12-12------12------------|
|--------------------------------------------|------------12------12-12---12-12---------|
|--------------------------------------------|-----------------------13------13-13p10---|
|--------------------------------------------|----------------------------------17-13---|
                                                E    E     E    S  S  E    S  S  E  E


          2)                       C5(type 2)Bb5(type 2)                      C5(type 2)
   S S  S  S  S S  S  S  S S  S  S  E  E      S S  S  S  S S  S  S  S S  S  S  E  E
   | |  |  |  | |  |  |  | |  |  |  |  |      | |  |  |  | |  |  |  | |  |  |  |  |
   / /  /  /  / /  /  /  / /  /  /  /  /      / /  /  /  / /  /  /  / /  /  /  /  /

                                                   ~~~
   E    E     E    S  S  E    S  S  E  E      E    H.                            +E
|-10---------------------------------------|------------------------------------------|
|-11---11---------11-----------------------|------------------------------------------|
|------12----12---12-12------12------------|------------------------------------------|
|------------12------12-12---12-12---------|-------8-----------------------------(8)\-|
|-----------------------13------13-13p10---|--8---------------------------------------|
|----------------------------------17-13---|------------------------------------------|
|  E    E     E    S  S  E    S  S  E  E
|
|       ~~~
|  E    H.                            +E      E    E     E    S  S  E    S  S  E  E
|------------------------------------------|-10---------------------------------------|
|------------------------------------------|-11---11---------11-----------------------|
|------------------------------------------|------12----12---12-12------12------------|
|-------8-----------------------------(8)\-|------------12------12-12---12-12---------|
|--8---------------------------------------|-----------------------13------13-13p10\--|
|------------------------------------------|----------------------------------17-13\--|
                                              E    E     E    S  S  E    S  S  E  E


  Gtr I
  PM----------|     PM------|   PM--------|   PM--|   PM  PM|
  T   T T T T T S T T T T T T S T T T T T T S T T T T T T T T
|-------------------------------------------------------------||
|-------------------------------------------------------------||
|-------------------------------------------------------------||
|-7---7-7-7-7-7-8-7-5-5-5-5-5-7-------------5-------5---5-----||
|-------------------------------8-8-8-8-8-8---7-7-7---7---7-7-||
|-------------------------------------------------------------||
|
| Gtr II
|                                                     PM--|
| H..                                                 S   S
|-------------------------------------------------------------||
|-------------------------------------------------------------||
|-------------------------------------------------------------||
|-------------------------------------------------------------||
|-----------------------------------------------------0---0---||
|-----------------------------------------------------0---0---||


 Verse
  Gtrs I, II
  S S S S S S  S S  S S S S  S S S S    S S S S  S S S S  S S S S  S S  S S
|------------------------------------|----------------------------------------|
|------------------------------------|----------------------------------------|
|------------------------------------|--3-3-3-3--3-3-3-3----------------------|
|-0-0-0-0-0-0--0-0--5-5-5-5--5-5-5-5-|--3-3-3-3--3-3-3-3--3-3-3-3--3-3--3-3---|
|-0-0-0-0-0-0--0-0--5-5-5-5--5-5-5-5-|--1-1-1-1--1-1-1-1--3-3-3-3--3-3--3-3---|
|-0-0-0-0-0-0--0-0--5-5-5-5--5-5-5-5-|--------------------3-3-3-3--3-3--3-3---|
|
| Gtr V
| Q       E    E    Q        Q          Q        Q        Q        E    E
|------------------------------------|----------------------------------------|
|------------------------------------|----------------------------------------|
|-7-------9---10---15-------15-------|-15-------17-------10-------12---14-----|
|-x-------x----x----x--------x-------|--x--------x--------x--------x----x-----|
|-5-------7----8---13-------13-------|-13-------15--------8-------10---12-----|
|------------------------------------|----------------------------------------|


   S S S S  S E    S  S S S S  S E    S    S S S S  S E    S  q  Q
|---------------------------------------|---------------------------|
|---------------------------------------|---------------------------|
|--3-3-3-3--3-3----3--------------------|---------------------------|
|--3-3-3-3--3-3----3--1-1-1-1--1-1----1-|--2-2-2-2--2-2----2--3-----|
|--1-1-1-1--1-1----1--1-1-1-1--1-1----1-|--3-3-3-3--3-3----3--3-----|
|---------------------1-1-1-1--1-1----1-|--2-2-2-2--2-2----2--3-----|
|
|  Q        E    E    Q        E    E      Q        E    E    q  Q
|---------------------------------------|---------------------------|
|---------------------------------------|---------------------------|
|-14-------14---14---15-------14---15---|-12-------12---12---14-----|
|--x--------x----x----x--------x----x---|--x--------x----x----x-----|
|-12-------12---12---13-------12---13---|-10-------10---10---12-----|
|---------------------------------------|---------------------------|


  S S S S S S  S S  S S S S  S S S S    S S S S  S S S S  S S S S  S S  S S
|------------------------------------|----------------------------------------|
|------------------------------------|----------------------------------------|
|------------------------------------|--3-3-3-3--3-3-3-3----------------------|
|-0-0-0-0-0-0--0-0--5-5-5-5--8-8-8-8-|--3-3-3-3--3-3-3-3--3-3-3-3--3-3--3-3---|
|-0-0-0-0-0-0--0-0--5-5-5-5--5-5-5-5-|--1-1-1-1--1-1-1-1--3-3-3-3--3-3--3-3---|
|-0-0-0-0-0-0--0-0--5-5-5-5--5-5-5-5-|--------------------3-3-3-3--3-3--3-3---|
|
| Q       E    E    Q        Q          Q        Q        Q        E    E
|------------------------------------|----------------------------------------|
|------------------------------------|----------------------------------------|
|-7-------9---10---15-------15-------|-15-------17-------10-------12---14-----|
|-x-------x----x----x--------x-------|--x--------x--------x--------x----x-----|
|-5-------7----8---13-------13-------|-13-------15--------8-------10---12-----|
|------------------------------------|----------------------------------------|


   S S S S  S E    S  S S S S  S E    S    S S S S  S E    S  S S E  E  E
|---------------------------------------|---------------------------------||
|---------------------------------------|---------------------------------||
|--3-3-3-3--3-3----3--------------------|---------------------------------||
|--3-3-3-3--3-3----3--1-1-1-1--1-1----1-|--2-2-2-2--2-2----2--3-3-3--3--3-||
|--1-1-1-1--1-1----1--1-1-1-1--1-1----1-|--3-3-3-3--3-3----3--3-3-3--3--3-||
|---------------------1-1-1-1--1-1----1-|--2-2-2-2--2-2----2--3-3-3--3--3-||
|
|  Q        E    E    Q        E    E      Q        E    E    Q      E  E
|---------------------------------------|---------------------------------||
|---------------------------------------|---------------------------------||
|-14-------14---14---15-------14---15---|-12-------12---12---14-----12-14-||
|--x--------x----x----x--------x----x---|--x--------x----x----x------x--x-||
|-12-------12---12---13-------12---13---|-10-------10---10---12-----10-12-||
|---------------------------------------|---------------------------------||


 Pre-Chorus
   S S  S S S E    S  S S S S S E S    S S  S S  S E    S  S S E E E
|-----------------------------------|--------------------------------|
|-----------------------------------|--------------------------------|
|--3-3--3-3-3-3----3----------------|--------------------------------|
|--3-3--3-3-3-3----3--1-1-1-1-1-1-1-|--2-2--2-2--2-2----2--3-3-3-3-3-|
|--1-1--1-1-1-1----1--1-1-1-1-1-1-1-|--3-3--3-3--3-3----3--3-3-3-3-3-|
|---------------------1-1-1-1-1-1-1-|--2-2--2-2--2-2----2--3-3-3-3-3-|
|
|  E    E   E    E    H                E    E    E    E    H
|-----------------------------------|--------------------------------|
|-----------------------------------|--------------------------------|
|-10---10---9---10---12-------------|-12---12---10---12---14---------|
|--x----x---x----x----x-------------|--x----x----x----x----x---------|
|--8----8---7----8---10-------------|-10---10----8---10---12---------|
|-----------------------------------|--------------------------------|


  Gtrs I, II
  PM--------|     PM------|   PM----------------|       ~
  T T T T T T S T T T T T T S T T T T T T S T T T T T T S
|----------------------------------------------------------||
|----------------------------------------------------------||
|----------------------------------------------------------||
|-7-7-7-7-7-7-8-7-5-5-5-5-5-7---------------------5-5-8-8--||
|-----------------------------8-8-8-8-8-8-5-5-7-7----------||
|----------------------------------------------------------||


   Chorus
    Gtr IV
     S  S  S  S  S  S  S  S  S  S  S  S  S  S  S  S
||--------------------------------------------------|
||o-11p10-------11p10-13p10-11p10-------11p10-13p10-|
||--------10----------------------10----------------|
||-----------10----------------------10-------------|
||o-------------------------------------------------|
||--------------------------------------------------|
|
|   Gtrs I, II
|    S  S  S  S  S  S  E     S  S  S  S  S  S  E
||--------------------------------------------------|
||o-------------------------------------------------|
||--------------------------------------------------|
||---3--3--3--3--3--3--3-----3--3--3--3--3--3--3----|
||o--3--3--3--3--3--3--3-----3--3--3--3--3--3--3----|
||---3--3--3--3--3--3--3-----3--3--3--3--3--3--3----|


   S  S  S  S  S  S  S  S  S  S  S  S  S  S  S  S
|-13p12-------13p12-15p12-13p12-------13h17-15h18--|
|-------13----------------------13-----------------|
|----------12----------------------12--------------|
|--------------------------------------------------|
|--------------------------------------------------|
|--------------------------------------------------|
|
|  S  S  S  S  S  S  E     S  S  S  S  S  S  E
|--------------------------------------------------|
|--------------------------------------------------|
|--5--5--5--5--5--5--5-----5--5--5--5--5--5--5-----|
|--5--5--5--5--5--5--5-----5--5--5--5--5--5--5-----|
|--3--3--3--3--3--3--3-----3--3--3--3--3--3--3-----|
|--------------------------------------------------|


   S  S  S  S  S  S  S  S  S  S  S  S  S  S  S  S
|-15----------------15-18-15----------------17-18-|
|----15----------15----------15----------15-------|
|-------15----15----------------15----15----------|
|----------17----------------------17-------------|
|-------------------------------------------------|
|-------------------------------------------------|
|
|  S  S  S  S  S  S  E     S  S  S  S  S  S  S  S
|-------------------------------------------------|
|-------------------------------------------------|
|-------------------------------------------------|
|--5--5--5--5--5--5--5-----5--5--5--5--5--5--5--5-|
|--5--5--5--5--5--5--5-----5--5--5--5--5--5--5--5-|
|--5--5--5--5--5--5--5-----5--5--5--5--5--5--5--5-|


   S  S  S  S  S  S  S  S  S  S  S  S  S  S  S  S
|-------------------------------------------15-----||
|-18-------17-------------18p17-------18p17----17-o||
|----17-------17----------------17-----------------||
|-------17-------17p15-------------17--------------||
|----------------------17-------------------------o||
|--------------------------------------------------||
|
|  S  S  S  S  E     E     S  S  S  S  S  S  S  S
|--------------------------------------------------||
|-------------------------------------------------o||
|--3--3--3--3--3-----3-----5--5--5--5--5--5--5--5--||
|--3--3--3--3--3-----3-----5--5--5--5--5--5--5--5--||
|--1--1--1--1--1-----1-----3--3--3--3--3--3--3--3-o||
|--------------------------------------------------||


   Interlude
    Gtr III
      ~~~      ~~       ~~     ~~~
      E     S  E     S  E   S  E.      E     E
||------------------15-15-----------------------|
||o-----------------------/18-18------------18--|
||--/14---/17-17----------------------17--------|
||----------------------------------------------|
||o---------------------------------------------|
||----------------------------------------------|
|
|   Gtr IV
|     ~~~      ~~       ~~     ~~~
|     E     S  E     S  E   S  E.      E     E
||----------------------------------------------|
||o--------10-10---/13-13--10-10------10---/13\-|
||--/10-----------------------------------------|
||----------------------------------------------|
||o---------------------------------------------|
||----------------------------------------------|
|
|   Gtrs I, II
|     S S   S  S S   S  E   S  S  S S  S S   E
||----------------------------------------------|
||o---------------------------------------------|
||----------------------------------------------|
||----3-3---3--3-3---3--3---3--3--3-3--3-3---3--|
||o---3-3---3--3-3---3--3---3--3--3-3--3-3---3--|
||----3-3---3--3-3---3--3---3--3--3-3--3-3---3--|


               ~~~~~~~~~~~~~~~~~~~~
    E       S  Q.              +Q           +S     E
|-----------------------------------------------------|
|--20------18-17--------------(17)---------(17)\------|
|------------------------------------------------/14--|
|-----------------------------------------------------|
|-----------------------------------------------------|
|-----------------------------------------------------|
|
|              ~~~                  ~~~
|   S  +S   S  Q          E     S   E.      +S     E
|-/12-(12)p10-----------/15----13--12------(12)\------|
|-------------13--------------------------------------|
|------------------------------------------------/10--|
|-----------------------------------------------------|
|-----------------------------------------------------|
|-----------------------------------------------------|
|
|   S   S   S  S  S S E     S   S   S  S S   S     E
|-----------------------------------------------------|
|-----------------------------------------------------|
|---5---5---5--5--5-5-5-----5---5---5--5-5---5-----5--|
|---5---5---5--5--5-5-5-----5---5---5--5-5---5-----5--|
|---3---3---3--3--3-3-3-----3---3---3--3-3---3-----3--|
|-----------------------------------------------------|


                    ~~~
   E.      E.       H              E
|--------------------------------------|
|-----------------/18------------------|
|-15------14----------------------14---|
|--------------------------------------|
|--------------------------------------|
|--------------------------------------|
|
|                   ~~~
|  E.      E.       H              E
|--------------------------------------|
|-----------------/13------------------|
|-12------10----------------------10---|
|--------------------------------------|
|--------------------------------------|
|--------------------------------------|
|
|  S  S S  S  S S   E S S S S S S  S S
|--------------------------------------|
|--------------------------------------|
|--------------------------------------|
|--5--5-5--5--5-5---5-5-5-5-5-5-5--5-5-|
|--5--5-5--5--5-5---5-5-5-5-5-5-5--5-5-|
|--5--5-5--5--5-5---5-5-5-5-5-5-5--5-5-|


                  ~~~
   E.      E.     Q      E    E       E
|----------------------------17b18---17\----||
|---------------/20-----18-----------------o||
|-15------14--------------------------------||
|-------------------------------------------||
|------------------------------------------o||
|-------------------------------------------||
|
|                 ~~~
|  E.      E.     Q      E    E       E
|-------------------------------------------||
|---------------/17----------18b20---18\---o||
|-12------10------------17------------------||
|-------------------------------------------||
|------------------------------------------o||
|-------------------------------------------||
|
|  S  S S  S  E   E S S  S S  S    S  S  S
|-------------------------------------------||
|------------------------------------------o||
|--3--3-3--3--3---3-5-5--5-5--5----5--5--5--||
|--3--3-3--3--3---3-5-5--5-5--5----5--5--5--||
|--1--1-1--1--1---1-3-3--3-3--3----3--3--3-o||
|-------------------------------------------||


   Bridge
    Gtr V
     E    S  E    S  E  S  E    S  S  S  E
||-----------------------------------------|
||o----------------------------------------|
||--10---14-14---17-17-15-15---14-14-15-14-|
||---x----x--x----x--x--x--x----x--x--x--x-|
||o--8---12-12---15-15-13-13---12-12-13-12-|
||-----------------------------------------|
|
|   Gtrs I, II
|    S S  S  S S  S  E  S  S S  S  S  S  E
||-----------------------------------------|
||o----------------------------------------|
||-----------------------------------------|
||---3-3--3--3-3--3--3--3--3-3--3--3--3--3-|
||o--3-3--3--3-3--3--3--3--3-3--3--3--3--3-|
||---3-3--3--3-3--3--3--3--3-3--3--3--3--3-|


  E    S  E    S  E  S  E    S  S  S  E
|---------------------------------------|
|---------------------------------------|
|-9---14-14---17-17-15-15---14-14-15-14-|
|-x----x--x----x--x--x--x----x--x--x--x-|
|-7---12-12---15-15-13-13---12-12-13-12-|
|---------------------------------------|
|
| S S  S  S S  S  E  S  S S  S  S  S  E
|---------------------------------------|
|---------------------------------------|
|-5-5--5--5-5--5--5--5--5-5--5--5--5--5-|
|-5-5--5--5-5--5--5--5--5-5--5--5--5--5-|
|-3-3--3--3-3--3--3--3--3-3--3--3--3--3-|
|---------------------------------------|


  E    S  E    S  E  S  E    S  S  S  E
|-----------------------------------------|
|-----------------------------------------|
|-7---14-14---17-17-15-15---14-14-15-14---|
|-x----x--x----x--x--x--x----x--x--x--x---|
|-5---12-12---15-15-13-13---12-12-13-12---|
|-----------------------------------------|
|
| S S  S  S S  S  E  S  S S  S  S  S  S S
|-----------------------------------------|
|-----------------------------------------|
|-----------------------------------------|
|-5-5--5--5-5--5--5--5--5-5--5--5--5--5-5-|
|-5-5--5--5-5--5--5--5--5-5--5--5--5--5-5-|
|-5-5--5--5-5--5--5--5--5-5--5--5--5--5-5-|


  E    S  E    S  E  S  E    S  S  S  E
|-------------------------------------------||
|------------------------------------------o||
|-9---14-14---17-17-15-15---17-17-17-17-----||
|-x----x--x----x--x--x--x----x--x--x--x-----||
|-7---12-12---15-15-13-13---15-15-15-15----o||
|-------------------------------------------||
|
| S S  S  S E     E  S  S S  S  S  S  S S
|-------------------------------------------||
|------------------------------------------o||
|-3-3--3--3-3-----3--5--5-5--5--5--5--5-5---||
|-3-3--3--3-3-----3--5--5-5--5--5--5--5-5---||
|-1-1--1--1-1-----1--3--3-3--3--3--3--3-3--o||
|-------------------------------------------||


   Interlude
    Gtr III
      ~~~      ~~       ~~     ~~~
      E     S  E     S  E   S  E.      E     E
||------------------15-15-----------------------|
||o-----------------------/18-18------------18--|
||--/14---/17-17----------------------17--------|
||----------------------------------------------|
||o---------------------------------------------|
||----------------------------------------------|
|
|   Gtr IV
|     ~~~      ~~       ~~     ~~~
|     E     S  E     S  E   S  E.      E     E
||----------------------------------------------|
||o--------10-10---/13-13--10-10------10---/13\-|
||--/10-----------------------------------------|
||----------------------------------------------|
||o---------------------------------------------|
||----------------------------------------------|
|
|   Gtrs I, II
|     S S   S  S S   S  E   S  S  S S  S S   E
||----------------------------------------------|
||o---------------------------------------------|
||----------------------------------------------|
||----3-3---3--3-3---3--3---3--3--3-3--3-3---3--|
||o---3-3---3--3-3---3--3---3--3--3-3--3-3---3--|
||----3-3---3--3-3---3--3---3--3--3-3--3-3---3--|


               ~~~~~~~~~~~~~~~~~~~~
    E       S  Q.              +Q           +S     E
|-----------------------------------------------------|
|--20------18-17--------------(17)---------(17)\------|
|------------------------------------------------/14--|
|-----------------------------------------------------|
|-----------------------------------------------------|
|-----------------------------------------------------|
|
|              ~~~                  ~~~
|   S  +S   S  Q          E     S   E.      +S     E
|-/12-(12)p10-----------/15----13--12------(12)\------|
|-------------13--------------------------------------|
|------------------------------------------------/10--|
|-----------------------------------------------------|
|-----------------------------------------------------|
|-----------------------------------------------------|
|
|   S   S   S  S  S S E     S   S   S  S S   S     E
|-----------------------------------------------------|
|-----------------------------------------------------|
|---5---5---5--5--5-5-5-----5---5---5--5-5---5-----5--|
|---5---5---5--5--5-5-5-----5---5---5--5-5---5-----5--|
|---3---3---3--3--3-3-3-----3---3---3--3-3---3-----3--|
|-----------------------------------------------------|


                    ~~~
   E.      E.       H              E
|--------------------------------------|
|-----------------/18------------------|
|-15------14----------------------14---|
|--------------------------------------|
|--------------------------------------|
|--------------------------------------|
|
|                   ~~~
|  E.      E.       H              E
|--------------------------------------|
|-----------------/13------------------|
|-12------10----------------------10---|
|--------------------------------------|
|--------------------------------------|
|--------------------------------------|
|
|  S  S S  S  S S   E S S S S S S  S S
|--------------------------------------|
|--------------------------------------|
|--------------------------------------|
|--5--5-5--5--5-5---5-5-5-5-5-5-5--5-5-|
|--5--5-5--5--5-5---5-5-5-5-5-5-5--5-5-|
|--5--5-5--5--5-5---5-5-5-5-5-5-5--5-5-|


                  ~~~
   E.      E.     Q      E    E       E
|----------------------------17b18---17\----||
|---------------/20-----18-----------------o||
|-15------14--------------------------------||
|-------------------------------------------||
|------------------------------------------o||
|-------------------------------------------||
|
|                 ~~~
|  E.      E.     Q      E    E       E
|-------------------------------------------||
|---------------/17----------18b20---18\---o||
|-12------10------------17------------------||
|-------------------------------------------||
|------------------------------------------o||
|-------------------------------------------||
|
|  S  S S  S  E   E S S  S S  S    S  S  S
|-------------------------------------------||
|------------------------------------------o||
|--3--3-3--3--3---3-5-5--5-5--5----5--5--5--||
|--3--3-3--3--3---3-5-5--5-5--5----5--5--5--||
|--1--1-1--1--1---1-3-3--3-3--3----3--3--3-o||
|-------------------------------------------||


 Guitar Solo/Outro
  Gtr VI
                      ~~                            ~~~~~
                          |----------3-----------|
    S  S  S  S  S  S  E  +S    S     S  S  S     S  E        +S     S
|-/13-------13----------------------------------13-15b17----(15)\-/13-|
|-----15-------15-------------------------15--------------------------|
|--------14-------14-------------------14-----------------------------|
|--------------------15-(15)\-12----15--------------------------------|
|---------------------------------------------------------------------|
|---------------------------------------------------------------------|
|
| Gtrs I, II
|   S  S  S  S  S  S  E   S       S     S     S     S     S   E
|---------------------------------------------------------------------|
|---------------------------------------------------------------------|
|---------------------------------------------------------------------|
|---3--3--3--3--3--3--3---3-------3-----3-----3-----3-----3---3-------|
|---3--3--3--3--3--3--3---3-------3-----3-----3-----3-----3---3-------|
|---3--3--3--3--3--3--3---3-------3-----3-----3-----3-----3---3-------|
|
| Gtr V
|   E     S  E     S  E   S       E           S     S     S   E
|---------------------------------------------------------------------|
|---------------------------------------------------------------------|
|--10----14-14----17-17--15------15----------14----14----15--14-------|
|---x-----x--x-----x--x---x-------x-----------x-----x-----x---x-------|
|---8----12-12----15-15--13------13----------12----12----13--12-------|
|---------------------------------------------------------------------|


   ~~                ~~
   E    S  e      S  H                   S  S
|-12---12-12\---/13h15------------------15h17b18-|
|------------------------------------------------|
|------------------------------------------------|
|------------------------------------------------|
|------------------------------------------------|
|------------------------------------------------|
|
|  S S  S  S  S   S  E  S  S S  S  S  S  E
|------------------------------------------------|
|------------------------------------------------|
|--5-5--5--5--5---5--5--5--5-5--5--5--5--5-------|
|--5-5--5--5--5---5--5--5--5-5--5--5--5--5-------|
|--3-3--3--3--3---3--3--3--3-3--3--3--3--3-------|
|------------------------------------------------|
|
|  E    S  E      S  E  S  E    S  S  S  E
|------------------------------------------------|
|------------------------------------------------|
|--9---14-14-----17-17-15-15---14-14-15-14-------|
|--x----x--x------x--x--x--x----x--x--x--x-------|
|--7---12-12-----15-15-13-13---12-12-13-12-------|
|------------------------------------------------|


   S      +S   S    E    S  E  S  E    S  S      +S   +S    S
|-17pb18-(17)p15\-/10h==12-13p10------------------------------|
|--------------------------------11------11b13==(11)r(11)\----|
|-------------------------------------10-------------------10-|
|-------------------------------------------------------------|
|-------------------------------------------------------------|
|-------------------------------------------------------------|
|
|  S       S   S    S S  S  E  S  S S  S  S       S    S    S
|-------------------------------------------------------------|
|-------------------------------------------------------------|
|-------------------------------------------------------------|
|--5-------5---5----5-5--5--5--5--5-5--5--5-------5----5----5-|
|--5-------5---5----5-5--5--5--5--5-5--5--5-------5----5----5-|
|--5-------5---5----5-5--5--5--5--5-5--5--5-------5----5----5-|
|
|  E           S    E    S  E  S  E    S  S       S    E
|-------------------------------------------------------------|
|-------------------------------------------------------------|
|--7----------14---14---17-17-15-15---14-14------15---14------|
|--x-----------x----x----x--x--x--x----x--x-------x----x------|
|--5----------12---12---15-15-13-13---12-12------13---12------|
|-------------------------------------------------------------|


                                          ~~~
   S  S  S  S  S  S  S  S  S  S  S  S  S  E.
|----------10-------12-------12----------15-------|
|-13p11-------11-------13-------13----13----------|
|-------10-------10-------12-------14-------------|
|-------------------------------------------------|
|-------------------------------------------------|
|-------------------------------------------------|
|
|  S  S  S  S  E     E     S  S  S  S  S  S   S S
|-------------------------------------------------|
|-------------------------------------------------|
|--3--3--3--3--3-----3-----5--5--5--5--5--5---5-5-|
|--3--3--3--3--3-----3-----5--5--5--5--5--5---5-5-|
|--1--1--1--1--1-----1-----3--3--3--3--3--3---3-3-|
|-------------------------------------------------|
|
|  E     S  E     S  E     S  E     S  S  S   E
|-------------------------------------------------|
|-------------------------------------------------|
|--9----14-14----17-17----15-15----17-17-17--17---|
|--x-----x--x-----x--x-----x--x-----x--x--x---x---|
|--7----12-12----15-15----13-13----15-15-15--15---|
|-------------------------------------------------|


                              ~~
   S  S  S  S  S  S  S  S  S  E    S    S  S  S S
|-15-------17-------15----------------------------|
|----18-------18-------18p15----------------------|
|-------17-------17----------14---14\-/10---------|
|-----------------------------------------10p=8---|
|-----------------------------------------------8-|
|-------------------------------------------------|
|
|  S  S  S  S  S  S  E     S  S S  S    S  S  E
|-------------------------------------------------|
|-------------------------------------------------|
|-------------------------------------------------|
|--3--3--3--3--3--3--3-----3--3-3--3----3--3--3---|
|--3--3--3--3--3--3--3-----3--3-3--3----3--3--3---|
|--3--3--3--3--3--3--3-----3--3-3--3----3--3--3---|
|
|  E     S  E     S  E     S  E    S    S  S  E
|-------------------------------------------------|
|-------------------------------------------------|
|-10----14-14----17-17----15-15---14---14-15-14---|
|--x-----x--x-----x--x-----x--x----x----x--x--x---|
|--8----12-12----15-15----13-13---12---12-13-12---|
|-------------------------------------------------|


                              ~~~~~~~
                                               |---3----|
   S  S  S  S  S  S  S  S  S  S  +E      +S    S  S     S  S
|-13-------15-------13---------------------------------------|
|----15-------15-------15---------------------15-------------|
|-------14-------14-------14---------------------14----------|
|----------------------------15-(15)----(15)\----------15p12-|
|------------------------------------------------------------|
|------------------------------------------------------------|
|
|  S  S  S  S  S  S  E     S  S   S   S   S    S     E
|------------------------------------------------------------|
|------------------------------------------------------------|
|--5--5--5--5--5--5--5-----5--5---5---5---5----5-----5-------|
|--5--5--5--5--5--5--5-----5--5---5---5---5----5-----5-------|
|--3--3--3--3--3--3--3-----3--3---3---3---3----3-----3-------|
|------------------------------------------------------------|
|
|  E     S  E     S  E     S  E       S   S    S     E
|------------------------------------------------------------|
|------------------------------------------------------------|
|--9----14-14----17-17----15-15------14--14---15----14-------|
|--x-----x--x-----x--x-----x--x-------x---x----x-----x-------|
|--7----12-12----15-15----13-13------12--12---13----12-------|
|------------------------------------------------------------|


                                              ~~~
   |---3---|             |--3--|
   S  S    S  S  E       T  T  T  E     T  T  E.       T  T  T  T  T  T  T  T
|---------------15b18r===========18b20r====================================15-|
|------------15---------------15-------------18----------------------15h17----|
|---------14---------------15----------15h17----------------------14----------|
|-12h15-----------------17-------------------------------------15-------------|
|-----------------------------------------------------------17----------------|
|-----------------------------------------------------15-17-------------------|
|
|  S    S     S  S    S  S        E     S     S  S  S  S     S     S     S
|-----------------------------------------------------------------------------|
|-----------------------------------------------------------------------------|
|-----------------------------------------------------------------------------|
|--5----5-----5--5----5--5--------5-----5-----5--5--5--5-----5-----5-----5----|
|--5----5-----5--5----5--5--------5-----5-----5--5--5--5-----5-----5-----5----|
|--5----5-----5--5----5--5--------5-----5-----5--5--5--5-----5-----5-----5----|
|
|  E          S  E       S        E     S     E     S  S     S     E
|-----------------------------------------------------------------------------|
|-----------------------------------------------------------------------------|
|--7---------14-14------17-------17----15----15----14-14----15----14----------|
|--x----------x--x-------x--------x-----x-----x-----x--x-----x-----x----------|
|--5---------12-12------15-------15----13----13----12-12----13----12----------|
|-----------------------------------------------------------------------------|


   ~~                                      ~~
        |---3----|             |---3----|
   E    S  S     S  S  S  S S  S  S     S  Q           S  S
|-18---17s13---------------------13s===20-22----------18p17---|
|---------------13s10-------7s13------------------------------|
|---------------------10s=7-----------------------------------|
|-------------------------------------------------------------|
|-------------------------------------------------------------|
|-------------------------------------------------------------|
|
|  S S  S     S     E     E    S     S     S  S  S  S  S  S
|-------------------------------------------------------------|
|-------------------------------------------------------------|
|--3-3--3-----3-----3-----3----5-----5-----5--5--5--5--5--5---|
|--3-3--3-----3-----3-----3----5-----5-----5--5--5--5--5--5---|
|--1-1--1-----1-----1-----1----3-----3-----3--3--3--3--3--3---|
|-------------------------------------------------------------|
|
|  E    S     E        S  E    S     E        S  S  S  E
|-------------------------------------------------------------|
|-------------------------------------------------------------|
|--9---14----14-------17-17---15----15-------17-17-17-17------|
|--x----x-----x--------x--x----x-----x--------x--x--x--x------|
|--7---12----12-------15-15---13----13-------15-15-15-15------|
|-------------------------------------------------------------|


                                  ~~~~
   E    S  E    S  E  S  E    S   S   S  S  S
|-17s===7--7s==15-15s=5p=3s==15-[15]-15p13-13-|
|---------------------------------------------|
|---------------------------------------------|
|---------------------------------------------|
|---------------------------------------------|
|---------------------------------------------|
|
|  S S  S  S S  S  E  S  S S  S   S   S  E
|---------------------------------------------|
|---------------------------------------------|
|---------------------------------------------|
|--3-3--3--3-3--3--3--3--3-3--3---3---3--3----|
|--3-3--3--3-3--3--3--3--3-3--3---3---3--3----|
|--3-3--3--3-3--3--3--3--3-3--3---3---3--3----|
|
|  E    S  E    S  E  S  E    S   S   S  E
|---------------------------------------------|
|---------------------------------------------|
|-10---14-14---17-17-15-15---14--14--15-14----|
|--x----x--x----x--x--x--x----x---x---x--x----|
|--8---12-12---15-15-13-13---12--12--13-12----|
|---------------------------------------------|


            \2______/
                        ~~
   S  S  S  E      +S   H                   S  S
|-13-------17-----(17)-15------------------13-15--|
|----15-------------------------------------------|
|-------14----------------------------------------|
|-------------------------------------------------|
|-------------------------------------------------|
|-------------------------------------------------|
|
|  S  S  S  S   S   S   E  S  S S  S  S  S  E
|-------------------------------------------------|
|-------------------------------------------------|
|--5--5--5--5---5---5---5--5--5-5--5--5--5--5-----|
|--5--5--5--5---5---5---5--5--5-5--5--5--5--5-----|
|--3--3--3--3---3---3---3--3--3-3--3--3--3--3-----|
|-------------------------------------------------|
|
|  E     S  E       S   E  S  E    S  S  S  E
|-------------------------------------------------|
|-------------------------------------------------|
|--9----14-14------17--17-15-15---14-14-15-14-----|
|--x-----x--x-------x---x--x--x----x--x--x--x-----|
|--7----12-12------15--15-13-13---12-12-13-12-----|
|-------------------------------------------------|


                                           \0.5
              ~~~~     ~~
   E      S   E     S  Q         S    S   +S     S  S  S
|-15\-------[17]------18-------(18)-(18)-(18)------15h17-|
|-------/15--------15-----------------x---------15-------|
|--------------------------------x-----------------------|
|--------------------------------------------------------|
|--------------------------------------------------------|
|--------------------------------------------------------|
|
|  S  S   S   S  S  S  E  S  S   S    S    S     S  S  S
|--------------------------------------------------------|
|--------------------------------------------------------|
|--------------------------------------------------------|
|--5--5---5---5--5--5--5--5--5---5----5----5-----5--5--5-|
|--5--5---5---5--5--5--5--5--5---5----5----5-----5--5--5-|
|--5--5---5---5--5--5--5--5--5---5----5----5-----5--5--5-|
|
|  E      S   E     S  E  S  E        S    S     S  E
|--------------------------------------------------------|
|--------------------------------------------------------|
|--7-----14--14----17-17-15-15-------14---14----15-14----|
|--x------x---x-----x--x--x--x--------x----x-----x--x----|
|--5-----12--12----15-15-13-13-------12---12----13-12----|
|--------------------------------------------------------|


                                          \1_________________/
           ~~             ~~~~                         ~~
   E    S  E    S  S     +E      +S    S  E       +S   E     a    a  a
|-18s==13s20------20b22-(20)----(20)\-22-22------(22)-22---(22)-(22)---|
|--------------18-------------------------------------------------x----|
|--------------------------------------------------------------------x-|
|----------------------------------------------------------------------|
|----------------------------------------------------------------------|
|----------------------------------------------------------------------|
|
|  S S  S  S E     E          S   S    S  S    S   S   S S
|----------------------------------------------------------------------|
|----------------------------------------------------------------------|
|--3-3--3--3-3-----3----------5---5----5--5----5---5---5-5-------------|
|--3-3--3--3-3-----3----------5---5----5--5----5---5---5-5-------------|
|--1-1--1--1-1-----1----------3---3----3--3----3---3---3-3-------------|
|----------------------------------------------------------------------|
|
|  E    S  E    S  E          S   E       S    S   S   E
|----------------------------------------------------------------------|
|----------------------------------------------------------------------|
|--9---14-14---17-17---------15--15------17---17--17--17---------------|
|--x----x--x----x--x----------x---x-------x----x---x---x---------------|
|--7---12-12---15-15---------13--13------15---15--15--15---------------|
|----------------------------------------------------------------------|


                                                      ~~
   S  S  S     S  S  S     S  S  S     S  S  S  S  S  E
|----------------17s18b20----------------17s20s17s20s17-|
|----18s20b22----------------18s20b22-------------------|
|-17----------17----------17----------17----------------|
|-------------------------------------------------------|
|-------------------------------------------------------|
|-------------------------------------------------------|
|
|  S  S  S     S  S  S     E     S     S  S  S  S  S  E
|-------------------------------------------------------|
|-------------------------------------------------------|
|-------------------------------------------------------|
|--3--3--3-----3--3--3-----3-----3-----3--3--3--3--3--3-|
|--3--3--3-----3--3--3-----3-----3-----3--3--3--3--3--3-|
|--3--3--3-----3--3--3-----3-----3-----3--3--3--3--3--3-|
|
|  E     S     E     S     E     S     E     S  S  S  E
|-------------------------------------------------------|
|-------------------------------------------------------|
|-10----14----14----17----17----15----15----14-14-15-14-|
|--x-----x-----x-----x-----x-----x-----x-----x--x--x--x-|
|--8----12----12----15----15----13----13----12-12-13-12-|
|-------------------------------------------------------|


                                               ~~
   S  S  S  S  S  S   S  S  S   S  S  S  S  S  E
|-------------------------------------------------|
|-------------------------------------------------|
|----17s19--------------17s24\--------------------|
|-17----------17s22\-17-----------19s22s19s22s19--|
|----------19------------------19-----------------|
|-------------------------------------------------|
|
|  S  S  S  S  S  S   E     S   S  S  S  S  S  E
|-------------------------------------------------|
|-------------------------------------------------|
|--5--5--5--5--5--5---5-----5---5--5--5--5--5--5--|
|--5--5--5--5--5--5---5-----5---5--5--5--5--5--5--|
|--3--3--3--3--3--3---3-----3---3--3--3--3--3--3--|
|-------------------------------------------------|
|
|  E     S  E     S   E     S   E     S  S  S  E
|-------------------------------------------------|
|-------------------------------------------------|
|--9----14-14----17--17----15--15----14-14-15-14--|
|--x-----x--x-----x---x-----x---x-----x--x--x--x--|
|--7----12-12----15--15----13--13----12-12-13-12--|
|-------------------------------------------------|


   S  S  S   S  S  S  S  S  S  S  S  S  S  S  S  S
|--------------------------------------------------|
|--------------------------------------------------|
|----19s24\-------------19s24-------------19h21p19-|
|-20-----------20s24s20----------19h20h22----------|
|-----------22----------------22-------------------|
|--------------------------------------------------|
|
|  S  S  S   S  S  S  E     S  S  S  S  S  S  S  S
|--------------------------------------------------|
|--------------------------------------------------|
|--------------------------------------------------|
|--5--5--5---5--5--5--5-----5--5--5--5--5--5--5--5-|
|--5--5--5---5--5--5--5-----5--5--5--5--5--5--5--5-|
|--5--5--5---5--5--5--5-----5--5--5--5--5--5--5--5-|
|
|  E     S   E     S  E     S  E     S  S  S  E
|--------------------------------------------------|
|--------------------------------------------------|
|--7----14--14----17-17----15-15----14-14-15-14----|
|--x-----x---x-----x--x-----x--x-----x--x--x--x----|
|--5----12--12----15-15----13-13----12-12-13-12----|
|--------------------------------------------------|


   ~~~~~~~~~~~~~~~~~~~
   Q          E     S  +S    T T  T T T T  T  T  T  T  T  T  T  T  T  T
|-----------------------------------------------------------------------|
|-18---------20----18-(18)\------------------------------------------15-|
|--------------------------------------------------------------14h15----|
|--------------------------------------------------------15h18----------|
|-----------------------------------5h7h8s13-12-13s15-17----------------|
|----------------------------5h7h=8-------------------------------------|
|
|  S S  S  S  E     E        S    S   S    S     S     S     S     S
|-----------------------------------------------------------------------|
|-----------------------------------------------------------------------|
|--3-3--3--3--3-----3--------5----5---5----5-----5-----5-----5-----5----|
|--3-3--3--3--3-----3--------5----5---5----5-----5-----5-----5-----5----|
|--1-1--1--1--1-----1--------3----3---3----3-----3-----3-----3-----3----|
|-----------------------------------------------------------------------|
|
|  E    S  E     S  E        S    E              E.          E
|-----------------------------------------------------------------------|
|-----------------------------------------------------------------------|
|--9---14-14----17-17-------15---15-------------17----------17----------|
|--x----x--x-----x--x--------x----x--------------x-----------x----------|
|--7---12-12----15-15-------13---13-------------15----------15----------|
|-----------------------------------------------------------------------|


                  ~~        ~~                    ~~~~~~~~~~~~
                                |--3--|  |--3--|
   Q      Q       Q   Q     Q   S  S  S  S  S  S  H       +W
|-17b20--17pb20r=17--17s=|=13--------------10h12-13----|-(13)----*|
|------------------------|--------------13-------------|---------*|
|------------------------|-----10-12h13----------------|---------*|
|------------------------|-----------------------------|---------*|
|------------------------|-----------------------------|---------*|
|------------------------|-----------------------------|---------*|
|
|  H              H         H                     H       +W
|------------------------|-----------------------------|---------*|
|------------------------|-----------------------------|---------*|
|------------------------|-----------------------------|---------*|
|--3--------------3------|--3---------------------3----|--(3)----*|
|--3--------------3------|--3---------------------3----|--(3)----*|
|--3--------------3------|--3---------------------3----|--(3)----*|
|
|  W                        H                     H       +W
|------------------------|-----------------------------|---------*|
|------------------------|-----------------------------|---------*|
|-14---------------------|-14--------------------14----|-(14)----*|
|--x---------------------|--x---------------------x----|---------*|
|-12---------------------|-12--------------------12----|-(12)----*|
|------------------------|-----------------------------|---------*|




--------------------------------------------------------------------------------


Duration Legend
---------------
W - whole; H - half; Q - quarter; E - 8th; S - 16th; T - 32nd; X - 64th; a - acciaccatura
+ - note tied to previous; . - note dotted; .. - note double dotted
Uncapitalized letters represent notes that are staccato (1/2 duration)
Irregular groupings are notated above the duration line
Duration letters will always appear directly above the note/fret number it represents the
duration for.  Duration letters with no fret number below them represent rests.  Multi-
bar rests are notated in the form Wxn, where n is the number of bars to rest for.  Low
melody durations appear below the staff

Tablature Legend
----------------
 h   - hammer-on
 p   - pull-off
 b   - bend
 pb  - pre-bend
 r   - bend release (if no number after the r, then release immediately)
 /\  - slide into or out of (from/to "nowhere")
 s   - legato slide
 S   - shift slide
 - natural harmonic
[n]  - artificial harmonic
n(n) - tapped harmonic
 ~   - vibrato
 tr  - trill
 T   - tap
 TP  - trem. picking
 PM  - palm muting
\n/  - tremolo bar dip; n = amount to dip
 \n  - tremolo bar down
 n/  - tremolo bar up
/n\  - tremolo bar inverted dip
 =   - hold bend; also acts as connecting device for hammers/pulls
 <> - volume swell (louder/softer)
 x   - on rhythm slash represents muted slash
 o   - on rhythm slash represents single note slash

Misc Legend
-----------
 |  - bar
||  - double bar
||o - repeat start
o|| - repeat end
*|  - double bar (ending)
 :  - bar (freetime)
 $  - Segno
 &  - Coda
Tempo markers -  = BPM(8/16=s8/s16), where s8 = swing 8ths, s16 = swing 16ths
Suggest correction
comments
print report bad tab
16 comments total. Showing first comments.
+2 reply
Ghost:o 118 Nov 13, 2007 06:42 AM

Thought you weren't gonna tab any of these songs :P
Looks good.

0 reply
Seth Shadows 4,623 Nov 13, 2007 09:25 AM

Lol, Tabbed the whole album =]

+1 reply
Delta_Mike 100 Nov 19, 2007 09:35 PM

Im messed at the solo!!! its not hard but I look at yours and its all over the place and I get easily confused...nearly
killed myself writing this

guest
You may want to rate the tab now too:
select rating
Wanna post a correction for this tab? Suggest correction