Oops, an error
Loading. Please wait.

Lost Tab

version 2
version 2
206,190 views 132 this week
25 commentsread comments
1 2 3 4 5
excellent!
x 47
add to favorites
launch autoscroll
font size
0
reset
how to read this tab
guitar tuner
Autoscroll
slow
fast
+/-
esc
set tempo
stop
Help us to improve Ultimate-Guitar.com Take our survey!
×
Author
Difficulty
Tuning
Tabbers playing skills
intermediate
D A D G B E
intermediate
|------------------------------------------------------------------------------|
              Avenged Sevenfold - Lost
|------------------------------------------------------------------------------|
Tabbed by : Solopractice
E-mail: linkinpark_neon@yahoo.com       
Album : Avenged Sevenfold
*Note, tuning is in Drop D. (Hopefully updated now)
Thanks to Phoenix for pointing that out.          

Right Side:
Guitar 3
Guitar 4

Left Side:
Guitar 1 
Guitar 2


[Intro]

   Guitar 1 (this guitar plays first)(left)
E|--------------------------------------------|
B|-------------------------12/15--------------|
G|--7--9-10-9--7-9-10-/-14--------------------| (2x)
D|--------------------------------------------|
A|--------------------------------------------|
D|--------------------------------------------|

   Guitar 3 (this plays shortly after Guitar 1)
E|--------------------------------------------|
B|-------------------------12/15--------------|
G|--7--9-10-9--7-9-10-/-14--------------------| (2x)
D|--------------------------------------------|
A|--------------------------------------------|
D|--------------------------------------------|

  (Harmony Guitar 1 and 2)(left)

   Guitar 1     
E|------------------------------------------|
B|-------------------------12/15------------|
G|--7--9-10-9--7-9-10-/-14------------------| (2x)
D|------------------------------------------|
A|------------------------------------------|
D|------------------------------------------|

   Guitar 2
E|------------------------------------------|
B|------------------------------15/18-------|
G|--10--12-13-12--10-12-13-/-17-------------| (2x)
D|------------------------------------------|
A|------------------------------------------|
D|------------------------------------------|

   (Harmony Guitar 3 and 4) (right)

   Guitar 3
E|-----------------------------------|
B|--------------------/-18-17-15~----|
G|--7--9-10-9--7-9-10----------------|
D|-----------------------------------|
A|-----------------------------------|
D|-----------------------------------|

   Guitar 4
E|------------------------------------| 
B|-------------------------/-21-20-18-| 
G|--10--12-13-12--10-12-13------------|  
D|------------------------------------|
A|------------------------------------|
D|------------------------------------|

   Guitar 3
E|------------------------------------|
B|--------------------/-18-17-18bhalf~|
G|--7--9-10-9--7-9-10-----------------|
D|------------------------------------|
A|------------------------------------|
D|------------------------------------|

   Guitar 4
E|-----------------------------------------| 
B|-------------------------/21-20-21bhalf~-| 
G|--10--12-13-12--10-12-13-----------------|  
D|-----------------------------------------|
A|-----------------------------------------|
D|-----------------------------------------|


  (Harmony ending Guitar 1 and 2)

   Guitar 1 (left)
E|-----------------------------------------|
B|--13-10----10----------------------------|
G|--------10----10----10-------------------|
D|-----------------12----12----------------|
A|--------------------------13---12--12/13~|
D|-----------------------------------------|
  
   Guitar 2 (left)
E|-----------------------------------------|
B|--17-15----15----------------------------|
G|--------15----15----15-------------------|
D|-----------------17----17----------------|
A|--------------------------17---15--15/17~|
D|-----------------------------------------|

  (Harmony Ending Guitar 3 and 4)

   Guitar 3 (right)
E|---------------------------------------|
B|-13-10----10---------------------------|
G|-------10----10----10------------------|
D|----------------12----12---------------|
A|-------------------------13--12-12h13~-|
D|---------------------------------------|

   Guitar 4  (right)
E|---------------------------------------|
B|-17-15----15---------------------------|
G|-------15----15----15------------------|
D|----------------17----17---------------|
A|-------------------------17--15-15h17~-|
D|---------------------------------------|

Then the Rhythm comes in  (harmony is played like above)

  Rhythm Guitar
E|--------------------------------------------------------------|
B|--------------------------------------------------------------|
G|--------------------------------------------------------------|
D|--7-(16x)--5-(2x)--3-(16x)--5-(2x)--7-(16x)--5-(2x)--3-(16)---|
A|--5--------3-------1--------3-------5--------3-------1--------|
D|--------------------------------------------------------------|

E|----------------------------------------------------|
B|----------------------------------------------------|
G|----------------------------------------------------|
D|-----5-----------8----------------------------------|
A|-----5-(16x)-----8-(16x)----------------------------|
D|-----5-----------8----------------------------------|

[OPENING to the verse] (2x)

   Lead Guitar
E|-----------------------------------------------------------------|
B|-----------------------------------------------------------------|
G|-----------------------------------------------------------------|
D|-----------------------------------------------------------0--0--|
A|--12-12-12-12-13--10-10-10-10-12--8-8-8-8-10--6-6-8-5-5----0--0--|
D|-----------------------------------------------------------0--0--|
    +  +  +  +      +  +  +  +      + + + +     + +   +             

   Rhythm Guitar
E|-----------------------------------------------------------------|
B|-----------------------------------------------------------------|
G|-----------------------------------------------------------------|
D|-----------------------------------------------------------0--0--|
A|-----------------------------------------------------------0--0--|
D|-----------------------------------------------------------0--0--|


[VERSE] (2x)

  Rhythm Guitar
E|------------------------------------------------------------|
B|------------------------------------------------------------|
G|------------------3-----------------------------------------|
D|--0-------5-------3-(8x)-3------4------5------2------3------|
A|--0-(8x)--5-(8x)--1------3-(8x)-4-(8x)-5-(8x)-2-(8x)-3-(8x)-|
D|--0-------5--------------3------4------5------2------3------|

  Lead Guitar
E|------------------------------------------------------------------------|
B|------------------------------------------------------------------------|
G|--7------15-------17-------14------10-10-10/12-12-12/-14--11------12----|
D|----(4x)----(10x)----(4x)-----(2x)--------------------------(4x)----(4x)|
A|--5------13-------15-------12------8--8--8/-10-10-10/-12--9-------10----|
D|------------------------------------------------------------------------|

E|------------------------------------------------------------|
B|------------------------------------------------------------|
G|--13------14/15-------9------10-------12-12/13-13/14/15-----|
D|-----(2x)---------------(4x)----(4x)------------------------|
A|--11------12/13-------7------8--------10-10/11-11/12/13-----|
D|------------------------------------------------------------|


[VERSE ENDING]
 
  Lead
E|-----------------------------------------------|
B|-----------------------------------------------|
G|-7-------8--------9-------10-------------------|
D|---(8x)----(8x)-----(8x)----(8x)---------------|
A|-5-------6--------7-------8--------------------|
D|-----------------------------------------------| 
 
  Rhythm
E|-----------------------------------------------|
B|-----------------------------------------------|
G|-----------------------------------------------|
D|-0-------1--------2-------3--------------------|
A|-0-(8x)--1-(8x)---2-(8x)--3-(8x)---------------|
D|-0-------1--------2-------3--------------------|

  
[Pre-Chorus]

  Syn
E|--------------------------------------------------------------------|
B|--------------------------------------------------------------------|
G|--------------------------------------------------------------------|
D|--------------------------------------------------------------------|
A|--12-12-12-12-13--10-10-10-10-12--7-7-7-7-8-8-8-8-10-10-10-10-13~~--|
D|--------------------------------------------------------------------|
    +  +  +  +      +  +  +  +      + + + + + + + + +  +  +  +       
      
  Zacky
E|-----------------------------------------------------------------|
B|-----------------------------------------------------------------|
G|-----------------------------------------------------------------|
D|-----------------------------------------------------------------|
A|--12-12-12-12-13--10-10-10-10-12--4-4-4-4-5-5-5-5-7-7-7-7--10~~--|
D|-----------------------------------------------------------------|
    +  +  +  +      +  +  +  +      + + + + + + + + + + + +           


[Chorus]

  Lead Guitar (played twice)
E|----------------------------------------------------|
B|--11-10------10-11-10-13-10-11-10-------10-11-10-13-|
G|--------9-------------------------9-----------------|
D|----------10------------------------10--------------|
A|----------------------------------------------------|
D|----------------------------------------------------|
  We've all been lost for most of this life..

E|----------------------------------------------------|
B|-10/18-17-------18-17-20--17-18-17-------18-17-20\--|
G|----------17-----------------------17---------------|
D|-------------17-----------------------17------------|
A|----------------------------------------------------|
D|----------------------------------------------------|
                                                      
E|-15----------15----17-18--15-----------15----17-18--|
B|----15----------15-----------15-----------15--------|
G|-------15-----------------------15------------------|
D|----------17-----------------------17---------------|
A|----------------------------------------------------|
D|----------------------------------------------------|
  Everywhere we turn more hatred surrounds us..  

E|----------------------------------------------------|
B|--18-15--------------------18-17-------18-17-20-17--|
G|--------15----17-15--------------17-----------------|
D|-----------15-------15--------------17--------------|
A|-----------------------15---------------------------|
D|----------------------------------------------------|

 Rhythm Guitar  (2x)
E|----------------------------------------------|
B|----------------------------------------------|
G|----------5--------------3------5-------------|
D|--3-------5-(8x)--5------3-(4x)-5-(4x)--------|
A|--3-(8x)--3-------5-(8x)-1------3-------------|
D|--3---------------5---------------------------|


[Chorus]

 (Harmony Guitar 1 and 2)(left)

   Guitar 1     
E|------------------------------------------|
B|-------------------------12/15------------|
G|--7--9-10-9--7-9-10-/-14------------------| (2x)
D|------------------------------------------|
A|------------------------------------------|
D|------------------------------------------|

   Guitar 2
E|------------------------------------------|
B|------------------------------15/18-------|
G|--10--12-13-12--10-12-13-/-17-------------| (2x)
D|------------------------------------------|
A|------------------------------------------|
D|------------------------------------------|

   (Harmony Guitar 3 and 4) (right)

   Guitar 3
E|-----------------------------------|
B|--------------------/-18-17-15~----|
G|--7--9-10-9--7-9-10----------------|
D|-----------------------------------|
A|-----------------------------------|
D|-----------------------------------|

   Guitar 4
E|------------------------------------| 
B|-------------------------/-21-20-18-| 
G|--10--12-13-12--10-12-13------------|  
D|------------------------------------|
A|------------------------------------|
D|------------------------------------|

   Guitar 3
E|------------------------------------|
B|--------------------/-18-17-18bhalf~|
G|--7--9-10-9--7-9-10-----------------|
D|------------------------------------|
A|------------------------------------|
D|------------------------------------|

   Guitar 4
E|-----------------------------------------| 
B|-------------------------/21-20-21bhalf~-| 
G|--10--12-13-12--10-12-13-----------------|  
D|-----------------------------------------|
A|-----------------------------------------|
D|-----------------------------------------|

 (Harmony ending Guitar 1 and 2)

   Guitar 1 (left)
E|-----------------------------------------|
B|--13-10----10----------------------------|
G|--------10----10----10-------------------|
D|-----------------12----12----------------|
A|--------------------------13---12--12/13~|
D|-----------------------------------------|
  
   Guitar 2 (left)
E|-----------------------------------------|
B|--17-15----15----------------------------|
G|--------15----15----15-------------------|
D|-----------------17----17----------------|
A|--------------------------17---15--15/17~|
D|-----------------------------------------|

  (Harmony Ending Guitar 3 and 4)

   Guitar 3 (right)
E|---------------------------------------|
B|-13-10----10---------------------------|
G|-------10----10----10------------------|
D|----------------12----12---------------|
A|-------------------------13--12-12h13~-|
D|---------------------------------------|

   Guitar 4  (right)
E|---------------------------------------|
B|-17-15----15---------------------------|
G|-------15----15----15------------------|
D|----------------17----17---------------|
A|-------------------------17--15-15h17~-|
D|---------------------------------------|

  Rhythm Guitar
E|--------------------------------------------------------------|
B|--------------------------------------------------------------|
G|--------------------------------------------------------------|
D|--7-(16x)--5-(2x)--3-(16x)--5-(2x)--7-(16x)--5-(2x)--3-(16)---|
A|--5--------3-------1--------3-------5--------3-------1--------|
D|--------------------------------------------------------------|

E|----------------------------------------------------|
B|----------------------------------------------------|
G|----------------------------------------------------|
D|-----5-----------8----------------------------------|
A|-----5-(16x)-----8-(16x)----------------------------|
D|-----5-----------8----------------------------------|

  Then, PreVerse followed by Verse, PreChorus, and Chorus.( No chorus ending this time)

  After 2nd Chorus is a short duet.

  Short Duet (2x)
  
  Guitar 3(left)
E|----------15-15-13-13------------------------------|
B|--10-13-13-------------13-13--/15-15bhalfr15-13~---|
G|---------------------------------------------------|
D|---------------------------------------------------|
A|---------------------------------------------------|
D|---------------------------------------------------|

  Guitar 4(left)
E|--------------------------------------------------8--10bhalfr10 8~|
B|------------------------------------------------------------------|
G|----(rest)--------------------------------------------------------|
D|------------------------------------------------------------------|
A|------------------------------------------------------------------|
D|------------------------------------------------------------------|

  Guitar 1 (right)
E|--------6-6-5-5--5-5-/13-13bhalfr13-12~-----|
B|--6-8-8-------------------------------------|
G|--------------------------------------------|
D|--------------------------------------------|
A|--------------------------------------------|
D|--------------------------------------------|

  Guitar 2 (right)
E|-------------------------------------------------12-13bhalfr13-12~|
B|------------------------------------------------------------------|
G|---(rest)---------------------------------------------------------|
D|------------------------------------------------------------------|
A|------------------------------------------------------------------|
D|------------------------------------------------------------------|

  Guitar 3 (left)
E|-----------/13~-----------8/--15-13--17-18-17~--------|
B|--10-11-10------10-11-10------------------------------|
G|------------------------------------------------------|
D|------------------------------------------------------|
A|------------------------------------------------------|
D|------------------------------------------------------|

  Guitar 1 (right)
E|--------/10~-------5/--13-12--13-15-13~---------------|
B|--6-8-6------6-8-6------------------------------------|
G|------------------------------------------------------|
D|------------------------------------------------------|
A|------------------------------------------------------|
D|------------------------------------------------------|


[Pre-BRIDGE]

  Lead Guitar 
E|---------------------------------------|
B|---------------------------------------|
G|------10-----10-----10-----10-----10---|
D|---------------------------------------|
A|--8-8----8-8----8-8----8-8----8-8------|
D|---------------------------------------|
    + +    + +    + +    + +    + +             
  
   With peace of mind so hard to find..                          
  
E|---------------------------------------|
B|---------------------------------------|
G|---------------------------------------|
D|------10-----10-----10-----10-----10~--|
A|--7-7----7-7----7-7----7-7----7-7------|
D|---------------------------------------|
    + +    + +    + +    + +    + +             


E|-------------------------------------|
B|-------------------------------------|
G|-------------------------------------|
D|------8-----7-----8-----7-----8~-----|
A|--5-5---5-5---5-5---5-5---5-5--------|
D|-------------------------------------|
    + +   + +   + +   + +   + +          

E|-------------------------------------|
B|-------------------------------------|
G|-------------------10-----9-----10~--|
D|------10-----8-----------------------|
A|--8-8----8-8---8-8----8-8---8-8------|
D|-------------------------------------|
    + +    + +   + +    + +   + +                 
                                            
  Another way to numb our mind ..   

 Rhythm Guitar  (2x)
E|----------------------------------------------|
B|----------------------------------------------|
G|----------5--------------3------5-------------|
D|--3-------5-(8x)--5------3-(4x)-5-(4x)--------|
A|--3-(8x)--3-------5-(8x)-1------3-------------|
D|--3---------------5---------------------------|
   
 
[BRIDGE] (Chorus AND Short Duet being played together at the same time)


[SOLO]          (CHORUS Rhythm as Rhythm for solo)

  Syn
E|-------------------------------------15-17-17~~---15-----------------------|
B|-18-13----13----------------------15-----------------18-17~----------------|
G|----------------14----------14-17------------------------------------------|
D|-------15-----------------14-----------------------------------------------|
A|-------------15-----12~----------------------------------------------------|
D|---------------------------------------------------------------------------|

E|--------------15-17-18-15-------------------------------------------------|
B|-18-17-18-20~-------------15-17-18-15----------------15---17---17-17-18~--|
G|--------------------------------------15-17~-17-15-----15---15------------|
D|--------------------------------------------------------------------------|
A|--------------------------------------------------------------------------|
D|--------------------------------------------------------------------------|

E|-------------------------------------------------------------------|
B|-20-18-----22-18----20-18------------------------------------------|
G|-------17--------17-------17---------------------------------------|
D|-----------------------------19-19bhalf~--15-14--------------------|
A|------------------------------------------------15-----------------|
D|---------------------------------------------------17~-------------|

E|------------------------------------------------------------|
B|-18-17----20-------18-17------------------------------------|
G|-------17----17----------17---------------------------------|
D|----------------17-----------17-17bhalf~--15-14----14-17----|
A|------------------------------------------------17----------|
D|------------------------------------------------------------|

E|----------/17br~-15-18br~-----------|
B|-------15--------------------20~----|
G|-12-15--------------------17--------|
D|------------------------------------|
A|------------------------------------|
D|------------------------------------| 

E|----------15-17-18-18\---------------------------|
B|-14-15-17--------------/17--13\--/17---13\-------|
G|-------------------------------------------------|
D|-------------------------------------------------|
A|-------------------------------------------------|
D|-------------------------------------------------|

E|--15-17-18-/20-20bhalf~---18-17---------------------------|
B|--------------------------------13-13--18-18\-10-10-------|
G|----------------------------------------------------------|
D|----------------------------------------------------------|
A|----------------------------------------------------------|
D|----------------------------------------------------------|

E|--------------------------17----17--15~--------|
B|---20-20-18-18-17-17---15----15----------------|
G|-----------------------------------------------|
D|-----------------------------------------------|
A|-----------------------------------------------|
D|-----------------------------------------------|

E|--13-14-15--/17-15-17b18~--14-15-17-18--/20-18-20b21~---22-22-20-20|
B|-------------------------------------------------------------------|
G|-------------------------------------------------------------------|
D|-------------------------------------------------------------------|
A|-------------------------------------------------------------------|
D|-------------------------------------------------------------------| 

E|---------15--18bhalf-------15-18b19r18b19r18-17~-----|
B|--/17-18------------/17-18---------------------------|
G|-----------------------------------------------------|
D|-----------------------------------------------------|
A|-----------------------------------------------------|
D|-----------------------------------------------------|

E|------12-15-------------12-15------------------------|
B|--/13-------13bhalf-/13-------13b14r13b14r13-13~-----|
G|-----------------------------------------------------|
D|-----------------------------------------------------|
A|-----------------------------------------------------|
D|-----------------------------------------------------|

E|-----------------------------------------------------------------------|
B|-----13-/22---12/13-----13-/22--12/13----------------------------------|
G|--15-----------------15--------------------------------------15-16-17~-|
D|---------------------------------------15h17h18-15h17h18--17-----------|
A|-----------------------------------------------------------------------|
D|-----------------------------------------------------------------------|


E|--------------------------------------------------|
B|--/20--18~------------------12-------12-----------|
G|-----------------------10-12----10-12-------------|
D|--------------10-12-14----------------------------|
A|--------------------------------------------------|
D|--------------------------------------------------|


[Outro]
  
   Syn 
E|----18bhalf~--18bhalf~---17~--17bhalf~---13~-------|
B|---------------------------------------------------|
G|---------------------------------------------------|
D|---------------------------------------------------|
A|---------------------------------------------------|
D|---------------------------------------------------|

  Zacky
E|---------------------------------------------------|
B|---------------------------------------------------|
G|---------------------------------------------------|
D|---3--/7----3---/7----3---/7-------3---/7----------|
A|---3--/7----3---/7----3---/7-------3---/7----------|
D|---3--/7----3---/7----3---/7-------3---/7----------|

  Syn
E|------------------13~----------------|
B|-------------------------------------|
G|--------10-12-14---------------------|
D|--10-12------------------------------|
A|-------------------------------------|
D|-------------------------------------|

  Zacky
E|------------------------------------|
B|------------------------------------|
G|------------------------------------|
D|--3---------------------------------|
A|--3---------------------------------|
D|--3---------------------------------|

   END.  :D
                         Finally managed to finish the solo, also did overall tab fix. Enjoy!


************************************

| (n)  Ghost note
| h    Hammer-on
| r    Release
| b    Bend
| /    Slide up
| \    Slide down
| ~    Vibrato

************************************
Suggest correction
What's this?
You can suggest a correction to this tab. Community and Mods will review your correction and vote to approve or reject it.
comments
print report bad tab
25 comments total. Showing first comments.
+3 reply
Ghost:o 341 wrote on November 13 2007, 06:40 am

The verse is octaves? I Can't tab very well, But i can hear that they are octaves Good tab.

0 reply
solopractice 419 wrote on November 16 2007, 12:16 pm

Thnx XD

+8 reply
TheRev006 27 wrote on May 29 2008, 10:13 pm

Awesome tab, but it is actually in Drop D not Drop C( C G C F A D)

guest
You may want to rate the tab now too:
select rating
Please do not post tabs as comments. Select "correction" instead!