Oops, an error
Loading. Please wait.

Mia bass

version 1
version 1

Whole song

15,916 views 6 this week
1 commentread comment
1 2 3 4 5
x 10
add to favorites
×
Save as Personal and add changes to this tab that will be seen only by you. Learn more ›
×
You can save this tab as Personal to edit and correct it or add notes. All changes will be seen only by you. Learn more »
launch autoscroll
font size
0
reset
guitar tuner
backing track
0:00
0:00
edit
Autoscroll
slow
fast
+/-
esc
set tempo
stop
---------------------------------------------------------------------------
                      MIA - Avenged Sevenfold
---------------------------------------------------------------------------

Basstab by Gustavo02
emaildogustavo02@hotmail.com


This tab is based on the bassline of the guitar pro file. I tryed to write it 
as close as possible of the timing. I also modified some parts by ear
to be more close to the original song. I hope you like it.

Tuning: drop D


INTRO:

G|10----------------------| |7-----------------------|  
D|12----------------------| |8-----------------------| 
A|------------------------| |------------------------|
D|------------------------| |------------------------|

G|9-----------------------| |------------------------|  
D|10----------------------| |------------------------| 
A|------------------------| |------------------------|  <- repeat x6 from
D|------------------------| |------------------------|     the start

G|------------------------| |------------------------|  
D|12----------------------| |------------------------| 
A|------------------------| |------------------------|
D|------------------------| |------------------------|


PRE-VERSE  (x2)
(when the music becomes heavier)

G|--------------------------------| |--------------------------------|  
D|--------------------------------| |--------------------------------| 
A|5---5---7-8---1-----1---3-5---3-| |--333-333-333-33--333-333-4---5-|
D|--------------------------------| |--------------------------------|

G|--------------------------------| |--------------------------------|  
D|--------------------------------| |--------------------------------| 
A|----5---7-8---1-----1---3-5---1-| |3-3---------1-----1-1-1-1-1-1-1-|
D|--------------------------------| |------3-3-----------------------|


VERSES:  x2

G|--------------------------------| |--------------------------------|  
D|--------------------------------| |--------------8---7-5-0-------5-| 
A|--------------------------------| |--------------------------5-8---|
D|0-0-------------------------0-0-| |------------------------6-------|

G|--------------------------------| |----------------------5---------|  
D|--------------------------------| |--------------------------------| 
A|--------------------------------| |3-3-----------3---2-3-----3-2-3-|
D|--------------------------------| |--------------------------------|

PRE-CHORUS:

G|--------------------------------| |--------------------------------|  
D|--------------------------------| |--------------------------------| 
A|--------------------------------| |--------------------------------|
D|6-5-0-3-----0-0-0-0-0-0-0-0-0-0-| |6-5-0-3-----0-0-0-0-0-0-0-0-0-0-|

G|--------------------------------| |--------------------------------|  
D|--------------------------------| |--------------------------------| 
A|1---1---1-1---------------------| |0---0---0---0-1---1-1---1-1-1-1-|
D|------------0-3---3-3---3-3-3-3-| |----------3---------------------|


G|--------------------------------| |--------------------------------|  
D|--------------------------------| |--------------------------------| 
A|--------------------------------| |--------------------------------|
D|6-5-0-3-----0-0-0-0-0-0-0-0-0-0-| |6-5-0-3-----0-0-0-0-0-0-0-0-0-0-|

G|--------------------------------| |--------------------------------|  
D|--------------------------------| |--------------------------------| 
A|1---1---1-1---------------------| |0---0---0---0-1-----1---1-------|
D|------------0-3---3-3---3-3-3-3-| |----------3-------0---0---------|


CHORUS:

G|--------------------------------| |--------------------------------|  
D|--------------------------------| |--------------------------------| 
A|5---5---5-5-5-1---1-1---1-0-1-2-| |3---3---------------------------|
D|--------------------------------| |--------2-2-2-3---3-3---3-2-3-0-|

G|--------------------------------| |--------------------0h2-0-------|  
D|--------------------------------| |--------------------------3-2---| 
A|--------------0---0---1---1-----| |3-3-3---3-3-3---3-3-----------3-|
D|5---5---3-5---------------------| |------5-------5-----------------|


G|--------------------------------| |--------------------------------|  
D|--------------------------------| |--------------------------------| 
A|5---5---5-5-5-1---1-1---1-0-1-2-| |3---3---------------------------|
D|--------------------------------| |--------2-2-2-3---3-3---3-2-3-0-|

G|--------------------------------| |--------------------------------|  
D|--------------------------------| |--------------------------------| 
A|--------------0---0---1---1-----| |3-3-3---3-3-------------3-------|
D|5---5---3-5---------------------| |------5---------5---------------|


----------------
REPEAT:
Pre verses
Pre chorus
Chorus
----------------
 

BREAKDOWN:  x2
(at 03:45) (notice that the beat goes a bit slower here and it is 3/4)


G|------------------------| |------------------------|  
D|------------------------| |------------------------| 
A|------------------------| |1-----1-----1---0---1---|
D|0----0---0-0------------| |------------------------|

G|------------------------| |------------------------|  
D|------------------------| |------------------------| 
A|3-----3---3-3---3---3---| |------------0---0---0---|
D|------------------------| |3-----3---3-------------|


INTERLUDE: (04:06)  x2

G|------------------------| |------------------------|  
D|------------------------| |------------------------| 
A|------------------------| |------------------------|
D|12\-0-0-0-0-12\-0-0-0-0-| |12\-0-0-0-0-12\-0-0-0-0-|

G|------------------------| |------------------------|  
D|------------------------| |------------------------| 
A|------------------------| |------------------------|
D|----0-0-0-0-----0-0-0-0-| |----0-0-0-0-0---2---3---|


G|------------------------| |------------------------|  
D|------------------------| |------------------------| 
A|------------------------| |------------------------|
D|8---8-8-8-8-8---8-8-8-8-| |8---8-8-8-8-8---8-8-8---|


INTERLUDE B:

G|------------------------| |------------------------|  
D|------------------------| |------------------------| 
A|------------5-----------| |------------------------|
D|0-----7---------7---0---| |2-----2---2-2---2---2---|

G|------------------------| |------------------------|  
D|------------------------| |------------------------| 
A|------------------------| |------------0---0---0---|
D|3-----3---3-3---3---3---| |3-----3---3-------------|


GUITAR SOLO: x4
(the beats comes back to normal, 4/4, here)

G|--------------------------------| |--------------------------------|  
D|0-000-000-000-000-000-000-000---| |--------------------------------| 
A|--------------------------------| |1-111-111-111-111-111-111-111---|
D|--------------------------------| |--------------------------------|

G|--------------------------------| |--------------------------------|  
D|--------------------------------| |--------------------------------| 
A|3-333-333-333-333-333-333-333---| |0-0-0-4---4-4-7---7-7-4---4-7---|
D|--------------------------------| |--------------------------------|


GUITAR SOLO B:  x2
05:24

G|--------------------------------| |--------------------------------|  
D|--------------------------------| |--------------------------------| 
A|5-5-5---------------------------| |1-1-1---------------------------|
D|--------------------------------| |--------------------------------|

G|--------------------------------| |--------------------------------|  
D|--------------------------------| |--------------------------------| 
A|3-3-3---------3-----------------| |0-0-0-4---4-4-7---7-7-4---4-7---|
D|------------5-------------------| |--------------------------------|


BREAKDOWN B          x2
(ooo oo oo part)

G|--------------------------------| |--------------------------------|  
D|--------------------------------| |--------------------------------| 
A|--------------------------------| |1---1---1-------1-1-1---1-1-----|
D|0---0---0-------0-0-0---0-0-----| |--------------------------------|

G|--------------------------5-----| |--------------------------------|  
D|--------------------------------| |--------------------------------| 
A|3---3---3-------3-3-3---3-------| |--------------------------------|
D|--------------------------------| |3---3---3-------3-3-3---3-3-----|


G|--------------------------------| |--------------------------------|  
D|--------------------------------| |--------------------------------| 
A|--------------------------------| |--------------------------------|
D|5---5---5-------5-5-5----5-5----| |7---7---7-------8-8---8-8-------|

G|--------------------------------| |--5-5-----5-5-------------------|  
D|--------------------------------| |5-------5-------5-7-5-3-5-3-2---| 
A|3---3---3-3-3---3-3-3---3-3-3---| |------------------------------3-|
D|--------------------------------| |--------------------------------|


BRIDGE:
06:33

G|------------------------| |------------------------|  
D|------------------------| |------------------------| 
A|------------------------| |1-----------1---0---1---|
D|0-------------------0-0-| |------------------------|

G|------------------------| |------------------------|  
D|------------------------| |------------------------| 
A|3-----3---3-3---3---3---| |------------0---0---0---|
D|------------------------| |3-----3---3-------------|

G|------------------------| |------------------------|  
D|------------------------| |------------------------| 
A|------------------------| |1-----------1---0---1---|
D|0-------------------0-0-| |------------------------|

G|------------------------| |------------------------|  
D|------------------------| |------------------------| 
A|3-----3---3-3---3---3---| |------------0---0---0---|
D|------------------------| |3-----3---3-------------|

G|------------------------| |------------------------|  
D|------------------------| |------------------------| 
A|------------------------| |------------------------|
D|0-----------------------| |------------------------|


I think the bass ends here, but if you want to keep playing, wait of the
guitar to begin end enters with it, like on the intro:

ENDING A: x4

G|10----------------------| |7-----------------------|  
D|12----------------------| |8-----------------------| 
A|------------------------| |------------------------|
D|------------------------| |------------------------|

G|9-----------------------| |------------------------|  
D|10----------------------| |------------------------| 
A|------------------------| |------------------------|  
D|------------------------| |------------------------|

ENDING B:   (pay attention to the timing)
07:39

G|10----------------------| |------------------------|  
D|8-----------------------| |------------------------| 
A|------------------------| |------------------------|
D|------------------------| |------------------------|

G|10----------------------| |------------------------|  
D|12----------------------| |------------------------| 
A|------------------------| |------------------------|  
D|------------------------| |------------------------|

G|10----------------------| |------------------------|  
D|11----------------------| |------------------------| 
A|------------------------| |------------------------|  
D|------------------------| |------------------------|

G|5-----------------------| |------------------------|  
D|2-----------------------| |------------------------| 
A|------------------------| |------------------------|  
D|------------------------| |------------------------|

from here play "ending A" until the end

Any suggestions/corrections, etc... just comment you send me an email
Good luck

            
            
Suggest correction
Creating personal tab
Creating personal tab
You can edit any tab online and save it as your Personal.

You can edit, replace or remove any tab part or add personal notes – all changes will be seen only by you.

Personal tabs can be accessed anytime from any device, even offline.
Learn more »
comments
print report bad tab
1 comment total.
+1 reply
wesselrockt 194 Apr 03, 2012 11:01 AM

good job dude! 5*

guest
You may want to rate the tab now too:
select rating
Wanna post a correction for this tab? Suggest correction