Oops, an error
Loading. Please wait.

Mia bass

version 2
version 2

Whole song

440 views 1 this week
no commentswrite comment
1 2 3 4 5
2 more votes to show rating
add to favorites
×
Save as Personal and add changes to this tab that will be seen only by you. Learn more ›
×
You can save this tab as Personal to edit and correct it or add notes. All changes will be seen only by you. Learn more »
launch autoscroll
font size
0
reset
guitar tuner
backing track
0:00
0:00
edit
Autoscroll
slow
fast
+/-
esc
set tempo
stop
G|--10-------7-------9---------R--------|  |---------|
D|o-12-------8-------10--------R-------o|x6|-12------|
A|o------------------------------------o|  |---------|
D|--------------------------------------|  |---------|

1:04
G|------------------------------------------------------------------|
D|o-----------------------------------------------------------------|
A|o-5---5---7-8---1---1-1---3-5---3---333-333-333-333-333---3-4---5-|
D|------------------------------------------------------------------|
    1 + 2 + 3 + 4 + 1 + 2 + 3 + 4 + 1 + 2 + 3 + 4 + 1 + 2 + 3 + 4 +

G|------------------------------------------------------------------|
D|-----------------------------------------------------------------o|
A|---5-5---7-8---1---1-1---3-5---1-3-3---------1-----1-1-1-1-1-1-1-o|
D|---------------------------------------3---3----------------------|
   1 + 2 + 3 + 4 + 1 + 2 + 3 + 4 + 1 + 2 + 3 + 4 + 1 + 2 + 3 + 4 +

1:27
G|------------------------------------------------------------------|
D|o-------------------------------------------/-8---7-5-0-------5---|
A|o---------------------------------------------------------5-8-----|
D|--0-0-------------------------0-0-----------------------8-------5-|
    1 + 2 + 3 + 4 + 1 + 2 + 3 + 4 + 1 + 2 + 3 + 4 + 1 + 2 + 3 + 4 +

G|------------------------------------------------------------------|
D|-----------------------------------------------------10----------o|
A|---------------------------------3-3-------/-8---7-8-------8-7-8-o|
D|------------------------------------------------------------------|
   1 + 2 + 3 + 4 + 1 + 2 + 3 + 4 + 1 + 2 + 3 + 4 + 1 + 2 + 3 + 4 +

1:50
G|-----------------------------------------------------------------|  
D|-----------------------------------------------------------------| 
A|-----------------------------------------------------------------|
D|-6-5-0-3-----0-0-0-0-0-0-0-0-0-0-6-5-0-3-----0-0-0-0-0-0-0-0-0-0-|
   1 + 2 + 3 + 4 + 1 + 2 + 3 + 4 + 1 + 2 + 3 + 4 + 1 + 2 + 3 + 4 +

1:56
G|-----------------------------------------------------------------|  
D|-----------------------------------------------------------------| 
A|-1---1---1-1-1-------------------0---0---0---0-1-----0-1-1-1-1-1-|
D|---------------3---3-3---3-3-3-3-----------3-------3-------------|
   1 + 2 + 3 + 4 + 1 + 2 + 3 + 4 + 1 + 2 + 3 + 4 + 1 + 2 + 3 + 4 +

G|-----------------------------------------------------------------|  
D|-----------------------------------------------------------------| 
A|-----------------------------------------------------------------|
D|-6-5-0-3-----0-0-0-0-0-0-0-0-0-0-6-5-0-3-----0-0-0-0-0-0-0-0-0-0-|
   1 + 2 + 3 + 4 + 1 + 2 + 3 + 4 + 1 + 2 + 3 + 4 + 1 + 2 + 3 + 4 +

2:08
G|-----------------------------------------------------------------|  
D|-----------------------------------------------------------------| 
A|-1---1---1-1-1-------------------0---0---0---0-1-----0-1-1-------|
D|---------------3---3-3---3-3-3-3-----------3-------3-------------|
   1 + 2 + 3 + 4 + 1 + 2 + 3 + 4 + 1 + 2 + 3 + 4 + 1 + 2 + 3 + 4 +

2:13
G|-----------------------------------------------------------------|  
D|-----------------------------------------------------------------| 
A|-5---5---5-5-5-1---1-1---1-1-0-1-3---3---------------------------|
D|-----------------------------------------2-2-2-3---3-3---5-3-2-3-|
   1 + 2 + 3 + 4 + 1 + 2 + 3 + 4 + 1 + 2 + 3 + 4 + 1 + 2 + 3 + 4 +

2:19
G|-----------------------------------------------------------------|  
D|-----------------------------------------------------5-7-5-------| 
A|---------------0---0-1---1-1-1---3-3-3---3-3-3---3-3-------8-7-3-|
D|-5-5-----5-5-3---------------------------------5-----------------|
   1 + 2 + 3 + 4 + 1 + 2 + 3 + 4 + 1 + 2 + 3 + 4 + 1 + 2 + 3 + 4 +

2:25
G|-----------------------------------------------------------------|  
D|-----------------------------------------------------------------| 
A|-5---5---5-8-5-1---1-1---1-1-0-1-3---3---------------------------|
D|-----------------------------------------2-2-2-3---3-3---5-3-2-3-|
   1 + 2 + 3 + 4 + 1 + 2 + 3 + 4 + 1 + 2 + 3 + 4 + 1 + 2 + 3 + 4 +

2:31
G|-----------------------------------------------------------------------|  
D|-----------------------------------------------------------------------| 
A|---------------0---0-1---1-1-1---3-3-3---3-3-3---10-----15-15-15-15-15-|
D|-5-5-----5-5-3---------------------------------------------------------|
   1 + 2 + 3 + 4 + 1 + 2 + 3 + 4 + 1 + 2 + 3 + 4 + 1 + 2 + 3 + 4 +

2:37
G|------------------------------------------------------------------|
D|o-----------------------------------------------------------------|
A|o-5---5---7-8---1---1-1---3-5---3---333-333-333-333-333---3-4---5-|
D|------------------------------------------------------------------|
    1 + 2 + 3 + 4 + 1 + 2 + 3 + 4 + 1 + 2 + 3 + 4 + 1 + 2 + 3 + 4 +

G|------------------------------------------------------------------|
D|-----------------------------------------------------------------o|
A|---5-5---7-8---1---1-1---3-5---1-3-3---------1-----1-1-1-1-1-1-1-o|
D|---------------------------------------3---3----------------------|
   1 + 2 + 3 + 4 + 1 + 2 + 3 + 4 + 1 + 2 + 3 + 4 + 1 + 2 + 3 + 4 +

3:00
G|-----------------------------------------------------------------|  
D|-----------------------------------------------------------------| 
A|-----------------------------------------------------------------|
D|-6-5-0-3-----0-0-0-0-0-0-0-0-0-0-6-5-0-3-----0-0-0-0-0-0-0-0-0-0-|
   1 + 2 + 3 + 4 + 1 + 2 + 3 + 4 + 1 + 2 + 3 + 4 + 1 + 2 + 3 + 4 +

G|-----------------------------------------------------------------|  
D|-----------------------------------------------------------------| 
A|-1---1---1-1-1-------------------0---0---0---0-1-----0-1-1-1-1-1-|
D|---------------3---3-3---3-3-3-3-----------3-------3-------------|
   1 + 2 + 3 + 4 + 1 + 2 + 3 + 4 + 1 + 2 + 3 + 4 + 1 + 2 + 3 + 4 +

G|-----------------------------------------------------------------|  
D|-----------------------------------------------------------------| 
A|-----------------------------------------------------------------|
D|-6-5-0-3-----0-0-0-0-0-0-0-0-0-0-6-5-0-3-----0-0-0-0-0-0-0-0-0-0-|
   1 + 2 + 3 + 4 + 1 + 2 + 3 + 4 + 1 + 2 + 3 + 4 + 1 + 2 + 3 + 4 +

G|-----------------------------------------------------------------|  
D|-----------------------------------------------------------------| 
A|-1---1---1-1-1-------------------0---0---0---0-1-----0-1-1-------|
D|---------------3---3-3---3-3-3-3-----------3-------3-------------|
   1 + 2 + 3 + 4 + 1 + 2 + 3 + 4 + 1 + 2 + 3 + 4 + 1 + 2 + 3 + 4 +

3:23
G|-----------------------------------------------------------------|  
D|-------------------------------------------------3---3---5-3-2-3-| 
A|-5---5---5-5-5-1---1-1---1-1-0-1-3---3---3-3-3-------------------|
D|-----------------------------------------------------------------|
   1 + 2 + 3 + 4 + 1 + 2 + 3 + 4 + 1 + 2 + 3 + 4 + 1 + 2 + 3 + 4 +

G|-----------------------------------------------------------------|  
D|-----------------------------------------------------5-7-5-------| 
A|---------------0---0-1---1-1-1---3-3-3---3-3-3---3-3-------8-7-3-|
D|-5-5-----5-5-3---------------------------------5-----------------|
   1 + 2 + 3 + 4 + 1 + 2 + 3 + 4 + 1 + 2 + 3 + 4 + 1 + 2 + 3 + 4 + 

3:35
G|-----------------------------------------------------------------|  
D|---------------------------------------------2---3---3---5-3-2-3-| 
A|-5---5---5-8-5-1---1-1---1-1-0-1-3---3---3-----------------------|
D|-----------------------------------------------------------------|
   1 + 2 + 3 + 4 + 1 + 2 + 3 + 4 + 1 + 2 + 3 + 4 + 1 + 2 + 3 + 4 +

G|--------------------------------------------------------------------------|  
D|--------------------------------------------------------------------------| 
A|---------------0---0-1---1-1-1-3-3-3-3-3-3-3-3-10-15-15-15-15-15-15-15-15-|
D|-5-5-----5-5-3------------------------------------------------------------|

3:46
G|--------------------------------------------------|  
D|o-------------------------------------------------| 
A|o-------------------------1-----1-----1---0---1---|
D|--0-----0---0-0-------0---------------------------|
    1 + 2 + 3 + 1 + 2 + 3 + 1 + 2 + 3 + 1 + 2 + 3 + 

G|--------------------------------------------------|  
D|-------------------------------------------------o| 
A|-3-----3---3-3---3---3---------------0---0---0---o|
D|-------------------------3-----3---3--------------|
   1 + 2 + 3 + 1 + 2 + 3 + 1 + 2 + 3 + 1 + 2 + 3 + 

4:05
G|--------------------------------------------------|  
D|o-------------------------------------------------| 
A|o-------------------------------------------------|
D|--12\-0-0-0-0-12\-0-0-0-0-12\-0-0-0-0-12\-0-0-0-0-|
    1 + 2 + 3 + 1 + 2 + 3 + 1 + 2 + 3 + 1 + 2 + 3 + 

G|-------------------------------------------------|  
D|-------------------------------------------------| 
A|-------------------------------------------------|
D|-----0-0-0-0-----0-0-0-0-----0-0-0-0-0---2---3---|
   1 + 2 + 3 + 1 + 2 + 3 + 1 + 2 + 3 + 1 + 2 + 3 + 

G|--------------------------------------------------|  
D|-------------------------------------------------o| 
A|-------------------------------------------------o|
D|-8---8-8-8-8-8---8-8-8-8-8---8-8-8-8-8---8-8-8----|
   1 + 2 + 3 + 1 + 2 + 3 + 1 + 2 + 3 + 1 + 2 + 3 + 

4:30
G|-------------------------------------------------|  
D|-------------0-----------------------------------| 
A|---------0-------0-------------------------------|
D|-0-----0-------------0---2-----2---2-2---2---2---|
   1 + 2 + 3 + 1 + 2 + 3 + 1 + 2 + 3 + 1 + 2 + 3 + 

G|-------------------------------------------------|  
D|-------------------------------------------------| 
A|-------------------------------------0---0---0---|
D|-3-----3---3-3---3---3---3-----3---3-------------|
   1 + 2 + 3 + 1 + 2 + 3 + 1 + 2 + 3 + 1 + 2 + 3 + 

4:40 x4
G|------------------------------------------------------------------|  
D|o-----------------------------------------------------------------| 
A|o-5-555-555-555-555-555-555-555-551-111-111-111-111-111-111-111-11|
D|------------------------------------------------------------------|
    1 + 2 + 3 + 4 + 1 + 2 + 3 + 4 + 1 + 2 + 3 + 4 + 1 + 2 + 3 + 4 +

G|------------------------------------------------------------------|  
D|-----------------------------------------------------------------o| 
A|-3-333-333-333-333-333-333-333-330-0-0-4---4-4-7---7-7-4---4-7---o|
D|------------------------------------------------------------------|
   1 + 2 + 3 + 4 + 1 + 2 + 3 + 4 + 1 + 2 + 3 + 4 + 1 + 2 + 3 + 4 +

5:26
G|------------------------------------------------------------------|  
D|o-----------------------------------------------------------------| 
A|o-5-5-5---------------------------1-1-1---------------------------|
D|------------------------------------------------------------------|
    1 + 2 + 3 + 4 + 1 + 2 + 3 + 4 + 1 + 2 + 3 + 4 + 1 + 2 + 3 + 4 +

G|------------------------------------------------------------------|  
D|-----------------------------------------------------------------o| 
A|-3-3-3---------3-----------------0-0-0-4---4-4-7---7-7-4---4-7---o|
D|-------------5----------------------------------------------------|
   1 + 2 + 3 + 4 + 1 + 2 + 3 + 4 + 1 + 2 + 3 + 4 + 1 + 2 + 3 + 4 +

5:48
G|------------------------------------------------------------------|  
D|o-----------------------------------------------------------------| 
A|o-5---5---5-------5-5---5-5-------1---1---1-------1-1---1-1-------|
D|------------------------------------------------------------------|
    1 + 2 + 3 + 4 + 1 + 2 + 3 + 4 + 1 + 2 + 3 + 4 + 1 + 2 + 3 + 4 +

G|-----------------------------------------------------------------|  
D|-----------------------------------------------------------------| 
A|-3---3---3-------3-3---3-3---------------------------------------|
D|---------------------------------3---3---3-------3-3---3-3-------|
   1 + 2 + 3 + 4 + 1 + 2 + 3 + 4 + 1 + 2 + 3 + 4 + 1 + 2 + 3 + 4 +

G|-----------------------------------------------------------------|  
D|-----------------------------------------------------------------| 
A|-----------------------------------------------------------------|
D|-5---5---5-------5-5---5-5-------7---7---7-------8-8---8-8-------|
   1 + 2 + 3 + 4 + 1 + 2 + 3 + 4 + 1 + 2 + 3 + 4 + 1 + 2 + 3 + 4 +

G|------------------------------------------------------------------|  
D|---------------------------------5-------5-------5-7-5-3-5-3-2-3-o| 
A|-3---3---3-3-3---3-3-3---3-3-3-----3-3-----3-3-------------------o|
D|------------------------------------------------------------------|
   1 + 2 + 3 + 4 + 1 + 2 + 3 + 4 + 1 + 2 + 3 + 4 + 1 + 2 + 3 + 4 +


6:35
G|-------------------------------------------------|  
D|-------------------------------------------------| 
A|-------------------------1-----------1---0---1---|
D|-0-------------------0-0-------------------------|
   1 + 2 + 3 + 1 + 2 + 3 + 1 + 2 + 3 + 1 + 2 + 3 + 

G|-------------------------------------------------|  
D|-------------------------------------------------| 
A|-3-----3---3-3-------3---------------0---0---0---|
D|-------------------------3-----3---3-------------|
   1 + 2 + 3 + 1 + 2 + 3 + 1 + 2 + 3 + 1 + 2 + 3 + 

G|-------------------------------------------------|  
D|-------------------------------------------------| 
A|-------------------------1-----------1---0---1---|
D|-0-------------------0-0-------------------------|
   1 + 2 + 3 + 1 + 2 + 3 + 1 + 2 + 3 + 1 + 2 + 3 + 

G|-------------------------------------------------|-----|
D|-------------------------------------------------|-----|
A|-3-----3---3-3---3---3---------------0---0---0---|-----|
D|-------------------------3-----3---3-------------|-0---|
   1 + 2 + 3 + 1 + 2 + 3 + 1 + 2 + 3 + 1 + 2 + 3 + 

7:03
G|-10-------7-------9---------R--------|  
D|-12-------8-------10--------R--------| 
A|-------------------------------------|
D|-(0)-----(0)------(0)------(0)-------|

7:13
G|--10-------7-------9---------R--------|  
D|o-12-------8-------10--------R-------o|x3
A|o------------------------------------o|
D|--------------------------------------|

7:44
G|-10-------R-------10-------(12)-------10-------(10)-------9--------(9)-------|  
D|-8--------R-------12-------(12)-------11-------(11)-------10-------(10)------| 
A|-----------------------------------------------------------------------------|
D|-----------------------------------------------------------------------------|

8:05
G|--10-------7-------9---------R--------|  
D|o-12-------8-------10--------R-------o|x4
A|o------------------------------------o|
D|--------------------------------------|

            
            
Suggest correction
Creating personal tab
Creating personal tab
You can edit any tab online and save it as your Personal.

You can edit, replace or remove any tab part or add personal notes – all changes will be seen only by you.

Personal tabs can be accessed anytime from any device, even offline.
Learn more »
Give kudos to tab author, rate the tab!
1 2 3 4 5
comments
print report bad tab
guest
You may want to rate the tab now too:
select rating
Wanna post a correction for this tab? Suggest correction