Oops, an error
Loading. Please wait.

Missing In Action Tab

version 3
version 3

Solo

Whole song

812 views 1 this week
no commentswrite comment
1 2 3 4 5
accurate
x 4
add to favorites
launch autoscroll
font size
0
reset
how to read this tab
guitar tuner
Tab Pro tools
  • play this tab
  • loop segment
  • change instrument
  • show fretboard
  • metronome
Autoscroll
slow
fast
+/-
esc
set tempo
stop
Contributor
Tuning
D A D G B E
-------------------------------------------------------------------
                       M.I.A. - Avenged Sevenfold
-------------------------------------------------------------------

Song: M.I.A.
Artist: Avenged Sevenfold
Album: City of Evil
Tabbed By: cozzanator
Email: cozzanator@hotmail.com


I don't have time to do the whole song... but the intro is still fine. 
This is for the intro, from 0:01 to 1:07. 
Should be right, but thats for you to decide...
(Be kind, it's my first tab)



Dropped D Tuning (D A D G B E)




Guitar 1

|-------------10-------------|------------------5-------|
|---10------------10---------|-----6--------8--------6--|
|--------10------------10----|---------7----------------|
|----------------------------|--------------------------|
|8---------------------------|--5-----------------------|
|----------------------------|--------------------------|             \
								       |  X6
								      /
|----------------------------|-----------0--------------|
|---8---------10-------8-----|--3--1--------2-----------|
|------------------9---------|--------2--------0--------|
|--------9-------------------|--------------------------|
|7---------------------------|--------------------------|
|----------------------------|--------------------------|


Guitar 2

|-----------5--------|-----------0--1-----|
|-----6--------6-----|-----3-----------3--|
|--------7--------7--|--3-----3-----------|
|--------------------|--------------------|
|--5-----------------|--1-----------------|
|--------------------|--------------------|    \
						|X6
|-----0--------0-----|--------------------|    /
|-----------6--------|-----------2--------|
|--------5--------5--|--3--2--------3-----|
|--------------------|--------3--------2--|
|--3-----------------|--------------------|
|--------------------|--------------------|
(after 6th time)
|-----5--|
|-----6--|
|--------|
|--------|
|--5-----|
|--------|

Guitar 3	(come in on 5th time of intro)

|----------------------------|8---10--8---10--8---10--8------------------|
|8--10--8--10--8--10--8----6-|10--11--10--11--10--11--10--------10-------|
|9--10--9--10--9--10--9----7-|------------------------------10------9--10|
|----------------------------|-------------------------------------------|
|----------------------------|-------------------------------------------|
|----------------------------|-------------------------------------------|     \
										|X2
									       /
|----------------|10--8---9---10--12--|--13----|
|8--------8--10--|11--10--10--11--14--|--15----|
|9----10--9--10--|--------------------|--------|
|----------------|--------------------|--------|
|----------------|--------------------|--------|
|----------------|--------------------|--------|


Guitar 4	(come in on 6th time of intro)

|-------------|--------------------------|
|-------------|--10brbrbr----------------|
|--9brbrbr-7--|------------10--9--10-----|
|-------------|--------------------------|
|-------------|--------------------------|
|-------------|--------------------------|


|---------------|--------------------------|
|---------------|/11--10--10--11--14--14b--|
|--9--7--9--10--|--------------------------|
|---------------|--------------------------|
|---------------|--------------------------|
|---------------|--------------------------|




That's all i could get, however if I get enough time I MAY do some more (no promises)
comments
print report bad tab
I want to post or [tab]
guest
You may want to rate the tab now too:
select rating
Please do not post tabs as comments. Select "correction" instead!