Oops, an error
Loading. Please wait.

Natural Born Killer bass

version 1
version 1

Whole song

13,409 views 9 this week
2 commentsread comments
1 2 3 4 5
x 3
add to favorites
×
Save as Personal and add changes to this tab that will be seen only by you. Learn more ›
×
You can save this tab as Personal to edit and correct it or add notes. All changes will be seen only by you. Learn more »
launch autoscroll
font size
0
reset
guitar tuner
backing track
0:00
0:00
edit
Autoscroll
slow
fast
+/-
esc
set tempo
stop
Song: "Natural Born Killer"
Band: Avenged Sevenfold
Album: Nightmare
Released: 2010
Artist: Johnny Christ
Instrument: Bass
Tuning: Drop D
Transcription: Stephen Spencer

(0:00)           (0:02)
G---------------|--------------------------------------------------------------|
D---------------|--------------------------------------------------------------|
A---------------|-1-3----1-3----1-3----1-3---1-3----1-3----1-3----1-3----------|
D---~----~------|--------------------------------------------------------------|

(0:21)
G------------------------------------------------------------------------------|
D------------------------------------------------------------------------------|
A------------------------------------------------------------------------------|
D-1111111111111111-------------------------------------------------------------|
(0:26)
G------------------------------------------------------------------------------|
D------------------------------------------------------------------------------|
A------------------------------------------------------------------------------|
D-0--0-0-0-0-3-0-5-0-7-0-6-0-4-0-3-0-0-0-0-0-0-0-0000000000000000--------------|(2x)
(0:36)
G--------------------------------|---------------------------------------------|
D--------------------------------|---------------------------------------------|
A--------------------------------|---------------------------------------------|
D-0--0-0-0-0-0-0-0-0-0-0-1-3-----|-----0--0-0-0-0-0-0-0-0-0-0-1-3--------------|
(0:41)
G------------------------------------------------------------------------------|
D------------------------------------------------------------------------------|
A------------------------------------------------------------------------------|
D-0--0-0-0-0-0-0-0-0-0-0-0-0-0-0-3-0-5-0-7-0-5-0-3-0-5-0-3-0-7-0---------------|
(0:47)
G------------------------------------------------------------------------------|
D------------------------------1-3---------------------------------------------|
A------------------------------------------------------------------------------|
D-1111111111111111111111111111-------------------------------------------------|
(0:52)
G------------------------------------------------------------------------------|
D------------------------------------------------------------------------------|
A------------------------------------------------------------------------------|
D-0--0-0-0-0-3-0-5-0-7-0-6-0-4-0-3-0-0-0-0-0-0-0-0000000000000000--------------|
(0:57)
G------------------------------------------------------------------------------|
D------------------------------1-3---------------------------------------------|
A------------------------------------------------------------------------------|
D-1111111111111111111111111111-------------------------------------------------|
(1:02)
G------------------------------------------------------------------------------|
D------------------------------------------------------------------------------|
A------------------------------------------------------------------------------|
D-0--0-0-0-0-3-0-5-0-7-0-6-0-4-0-3-0-0-0-0-0-0-0-0000000000000000--------------|
(1:07)
G-----------------------------------------7----------5-7-9---------------------|
D----7-10-7-6----4-7-7-4-430----7-10-77-10-70----575---------------------------|
A------------------------------------------------------------------------------|
D-8~----------5~-------------8~---------------5~-------------------------------|
(1:18)
G------------------------------------------------------------------------------|
D------------------------------------------------------------------------------|
A--------------------------(66-66-66-66-6-6)-----------------------------------|
D-0-0-0-7-7-7-8-8-8-5-5-5------------------------------------------------------|(4x)
(1:41)
G------------------------------------------------------------------------------|
D------------------------------------------------------------------------------|
A------------------------------------------------------------------------------|
D-0--0-0-0-0-3-0-5-0-7-0-6-0-4-0-3-0-0-0-0-0-0-0-0000000000000000--------------|(2X)
(1:51)
G--------------------------------|---------------------------------------------|
D--------------------------------|---------------------------------------------|
A--------------------------------|---------------------------------------------|
D-0--0-0-0-0-0-0-0-0-0-0-1-3-----|-----0--0-0-0-0-0-0-0-0-0-0-1-3--------------|
(1:57)
G------------------------------------------------------------------------------|
D------------------------------------------------------------------------------|
A------------------------------------------------------------------------------|
D-0--0-0-0-0-0-0-0-0-0-0-0-0-0-0-3-0-5-0-7-0-5-0-3-0-5-0-3-0-7-0---------------|
(2:02)
G------------------------------------------------------------------------------|
D------------------------------1-3---------------------------------------------|
A------------------------------------------------------------------------------|
D-1111111111111111111111111111-------------------------------------------------|
(2:07)
G------------------------------------------------------------------------------|
D------------------------------------------------------------------------------|
A------------------------------------------------------------------------------|
D-0--0-0-0-0-3-0-5-0-7-0-6-0-4-0-3-0-0-0-0-0-0-0-0000000000000000--------------|
(2:12)
G------------------------------------------------------------------------------|
D------------------------------1-3---------------------------------------------|
A------------------------------------------------------------------------------|
D-1111111111111111111111111111-------------------------------------------------|
(2:17)
G------------------------------------------------------------------------------|
D------------------------------------------------------------------------------|
A------------------------------------------------------------------------------|
D-0--0-0-0-0-3-0-5-0-7-0-6-0-4-0-3-0-0-0-0-0-0-0-0000000000000000--------------|
(2:23)
G-----------------------------------------7----------5-7-9---------------------|
D----7-10-7-6----4-7-7-4-430----7-10-77-10-70----575---------------------------|
A------------------------------------------------------------------------------|
D-8~----------5~-------------8~---------------5~-------------------------------|
(2:33)
G------------------------------------------------------------------------------|
D------------------------------------------------------------------------------|
A--------------------------(66-66-66-66-6-6)-----------------------------------|
D-0-0-0-7-7-7-8-8-8-5-5-5------------------------------------------------------|(4x)
(2:56)
G------------------------------------------------------------------------------|
D------------------------------------------------------------------------------|
A-----------6-66666-4-2-222-1-0--(66-66-66-66-6--1-1-1-1-1)--------------------|
D-5~-0-1~-0--------------------------------------------------------------------|(8x)
(3:43)
G------------------------------------------------------------------------------|
D------------------------------------------------------------------------------|
A------------------------------------------------------------------------------|
D-0--0-0-0-0-3-0-5-0-7-0-6-0-4-0-3-0-0-0-0-0-0-0-0000000000000000--------------|(2x)
(3:53)
G------------------------------------------------------------------------------|
D------------------------------------------------------------------------------|
A-66666666666666666666666666666666666666-8-------------------------------------|
D------------------------------------------------------------------------------|
(3:58)
G------------------------------------------------------------------------------|
D------------------------------------------------------------------------------|
A------------------------------------------------------------------------------|
D-0--0-0-0-0-3-0-5-0-7-0-6-0-4-0-3-0-0-0-0-0-0-0-0000000000000000--------------|
(4:04)
G------------------------------------------------------------------------------|
D------------------------------------------------------------------------------|
A------------------------------------------------------------------------------|
D-8~------5~------8~------5~------8~------5~------8~------10~------11~---------|(2x)
(4:25)
G------------------------------------------------------------------------------|
D------------------------------------------------------------------------------|
A--------------------------(66-66-66-66-6-6)-----------------------------------|
D-0-0-0-7-7-7-8-8-8-5-5-5--------------------(1-1-1-1-1)-----------------------|(8x)
Suggest correction
Creating personal tab
Creating personal tab
You can edit any tab online and save it as your Personal.

You can edit, replace or remove any tab part or add personal notes – all changes will be seen only by you.

Personal tabs can be accessed anytime from any device, even offline.
Learn more »
Give kudos to tab author, rate the tab!
1 2 3 4 5
comments
print report bad tab
2 comments total.
0 reply
6BassRocker66 77 Jul 28, 2010 06:18 AM

Awesome tab but in the intro im sure its A|-1-4-

0 reply
BeastItUp 31 Aug 02, 2010 12:13 PM

1-3 sounds wrong, i agree. its A|-1-4-

guest
You may want to rate the tab now too:
select rating
Wanna post a correction for this tab? Suggest correction