Oops, an error
Loading. Please wait.

Natural Born Killer bass

version 2
version 2

Whole song

11,001 views 9 this week
3 commentsread comments
1 2 3 4 5
x 9
add to favorites
×
Save as Personal and add changes to this tab that will be seen only by you. Learn more ›
×
You can save this tab as Personal to edit and correct it or add notes. All changes will be seen only by you. Learn more »
launch autoscroll
font size
0
reset
guitar tuner
backing track
0:00
0:00
edit
Autoscroll
slow
fast
+/-
esc
set tempo
stop
Natural Born Killer
Avenged Sevenfold
Nightmare

Tabbed by : fender4string
Tuning: Drop D

Another great song off a fantastic album.  Have fun playing this one!  It's
high energy.  Enjoy and please remember to rate!

Thanks!

Intro
G|--------------------------------------------------------------|
D|--------------------------------------------------------------|
A|--R-------1--4--------R----1--4-----R---1--4-----R----1--4----|
D|--------------------------------------------------------------|

G|--------------------------------------------------------------|
D|--------------------------------------------------------------|
A|---------------------------1--4-------------------------1--4--|
D|---000-000-000-000-000-000------000-000-000-000-000-000-------|

G|--------------------------------------------------------------|
D|--------------------------------------------------------------|
A|---------------------------1--4-------------------------1--4--|
D|---00000000000000000000000------00000000000000000000000-------|

G|---------------------------------------------------------------|
D|---------------------------------------------------------------|
A|-66666666666666666666666666666666666666666666666666666666666---|
D|---------------------------------------------------------------|

Just for fun here's how the guitar goes during the intro if you'd rather play that
than just triplets/sixteenths
G|---------------------------------------|
D|---------------------------------------|
A|------5----4----5----1----0------1--4--|
D|--000---00---00---00---00---00---------|


Verse
G|---------------------------------------------------------------------------|
D|---------------------------------------------------------------------------|
A|---------------------------------------------------------------------------|  2X
D|-0--0000-3h0-5h0-7h0-6h0-5h0-3h0-000000--00000000000000000000000000000000--|

G|-----------------------------------------|
D|-----------------------------------------|
A|--------------1--4--------------1--4-----|
D|-0-0000000000------0-0000000000----------|

G|----------------------------------------------------|
D|----------------------------------------------------|
A|----------------------------------------------------|
D|-0-00000000000000-5h0-7h0-8h0-7h0-5h0-7h0-5h0-7h0---|

G|----------------------------------------------------------|
D|----------------------------------------------------------|
A|-6666666666666666666666666666666666666666666666666-6--8---|
D|----------------------------------------------------------|

G|---------------------------------------------------------------------------|
D|---------------------------------------------------------------------------|
A|---------------------------------------------------------------------------|
D|-0--0000-3h0-5h0-7h0-6h0-5h0-3h0-000000--00000000000000000000000000000000--|

G|----------------------------------------------------------|
D|----------------------------------------------------------|
A|-6666666666666666666666666666666666666666666666666-6--8---|
D|----------------------------------------------------------|

G|---------------------------------------------------------------------------|
D|---------------------------------------------------------------------------|
A|---------------------------------------------------------------------------|
D|-0--0000-3h0-5h0-7h0-6h0-5h0-3h0-000000--00000000000000000000000000000000--|


Pre-Chorus "So this is the world you left behind..."
G|--------------------------------------------------------|
D|---------8---10---8-----------------5---7-7--5----------|
A|-----8--------------------------5-----------------------|
D|-8--------------------8\----5--------------------5/-----|

G|--------------------------------------------------------|
D|---------8---10--8888------10-8------------------12-14--|
A|-----8--------------------------10----------------------|
D|-8---------------------10----------10--11---11----------|


Chorus
G|--------------------------------------------------------------------------------------|
D|--------------------------------------------------------------------------------------|
A|--------------------------------------------------------------------------------------|
D|--0--00--0--7--77--5-7-8--8--88--8\-5-55-5--0--00--0--7--77-5-7-8--88--8--5--5h7p5----|

G|-----------------------------------------------------------------------------------------------|
D|-----------------------------------------------------------------------------------------------|
A|---------------------------------------------------------------------------------66-66-66-66--6|
D|-0--00--0-7--77--5-7-8--8--88--8\-5-55-5--0--00--0-7--77-5-7-8--8h10p8--5--55-5----------------|


Verse (no variations)


Pre-Chorus
G|--------------------------------------------------|
D|---------8--10--8--------------5--7---7-5---------|
A|-----8---------------------5--------------5-------|
D|-8----------------8\---5-------------------5/-----|

G|----------------------------------------------------------------|
D|---------8--10h12h10-8h10p8----------10-8---------------12-14---|
A|-----8----------------------10------------10--------------------|
D|-8-------------------------------10----------10--11--11---------|


Chorus (no variations)

Bridge
G|----------------------------------------|
D|----------------------------------------|
A|-----------------6-66666-5-3-3333-1-0---| 10X (I think :D )
D|-5-55--0-1-11-1-------------------------|

G|---------------------------------------|
D|---------------------------------------|
A|-66-66-66-66-6-6-----------------------|
D|--------------------1---1---1---1---1--|


Guitar Solo
G|---------------------------------------------------------------------------|
D|---------------------------------------------------------------------------|
A|---------------------------------------------------------------------------|
D|-0--0000-3h0-5h0-7h0-6h0-5h0-3h0-000000--00000000000000000000000000000000--|

G|---------------------------------------------------------------------------|
D|---------------------------------------------------------------------------|
A|---------------------------------------------------------------------------|
D|-0--0000-3h0-5h0-7h0-6h0-5h0-3h0-000000--00000000000000000000000000000000--|

G|----------------------------------------------------------|
D|----------------------------------------------------------|
A|-6666666666666666666666666666666666666666666666666-6--8---|
D|----------------------------------------------------------|

G|---------------------------------------------------------------------------|
D|---------------------------------------------------------------------------|
A|---------------------------------------------------------------------------|
D|-0--0000-3h0-5h0-7h0-6h0-5h0-3h0-000000--00000000000000000000000000000000--|

G|-----------------------------------------------------------------|
D|-----------------------------------------------------------------|
A|-----------------------------------------------------------------|
D|-8-88-8-88-8-8-5-55-5-55-5-5-8-88-8-88-8-8-5-55-5-55-55555555----|

G|---------------------------------------------------------------------------------------------|
D|---------------------------------------------------------------------------------------------|
A|---------------------------------------------------------------------------------------------|
D|-8-88-8-88-8h10p8-5-55-5-55-5-5-8-88-8-88-8-8-1010101010101010-11-11-11-11-11-11-11-11-------|


Chorus (no variations)


Outro Chorus
G|---------------------------------------------------------------------------|
D|---------------------------------------------------------------------------|
A|---------------------------------------------------------------------------|
D|-00000000-77777777-88888888-55555555-00000000-77777777-88888888-55555555---|

G|----------------------------------------------------------------------------------|
D|----------------------------------------------------------------------------------|
A|-------------------------------------55555555-77777777-88888888-1010101010101010--|
D|-00000000-22222222-33333333-55555555----------------------------------------------|

G|---------------------------------------|
D|---------------------------------------|
A|-66-66-66-66-6-6-----------------------|
D|--------------------1---1---1---1---1--|



| /  slide up
| \  slide down
| h  hammer-on
| p  pull-off
| ~  vibrato
| +  harmonic
| x  Mute note
=================================================================
Suggest correction
Creating personal tab
Creating personal tab
You can edit any tab online and save it as your Personal.

You can edit, replace or remove any tab part or add personal notes – all changes will be seen only by you.

Personal tabs can be accessed anytime from any device, even offline.
Learn more »
comments
print report bad tab
3 comments total.
0 reply
13Kelly13 124 Dec 28, 2010 01:36 PM

Its perfect, great tab

0 reply
Peter_Smyth 31 Jun 20, 2013 05:54 AM

What does the letter 'R' mean in the intro?

0 reply
fender4string 569 Jun 27, 2013 05:40 PM

R means rest in my sloppy layman's tablature

guest
You may want to rate the tab now too:
select rating
Wanna post a correction for this tab? Suggest correction