Oops, an error
Loading. Please wait.
We have an official Nightmare tab made by UG professional guitarists. Check out the tab »
×
706 views 15 this week
2 commentsread comments
1 2 3 4 5
x 4
add to favorites
×
Save as Personal and add changes to this tab that will be seen only by you. Learn more ›
×
You can save this tab as Personal to edit and correct it or add notes. All changes will be seen only by you. Learn more »
launch autoscroll
font size
0
reset
how to read this tab
guitar tuner
backing track
0:00
0:00
edit
Autoscroll
slow
fast
+/-
esc
set tempo
stop
-------------------------------------------------------------------------------
                          Nightmare - Avenged Sevenfold
-------------------------------------------------------------------------------
Tabbed by: Simran Torascar

Tuning: DADGBE


Tab for intro before drums. The first 35 seconds of the song.

e|---------------------------------------------------------------------------|
B|---------------------------------------------------------------------------|
G|--------14--13--12--10--------14--13--12--10-------------------------------|
D|----12-----------------12--12------------------------------------------==--|
A|-----------------------------------------------------------------------==--|
D|-----------------------------------------------------------------------==--|

e|---------------------------------------------------------------------------|
B|---------------------------------------------------------------------------|
G|--------14--13--12--10---------14--13--12--10------------------------------|
D|----12-----------------12--12----------------------------------------------|
A|---------------------------------------------------------------------------|
D|---------------------------------------------------------------------------|

e|---------------------------------------------------------------------------|
B|---------------------------------------------------------------------------|
G|----------------------------------------------------15--14--12--14---------|
D|--------15--14--12------15--14--12------14--15--17-------------------------|
A|----13--------------14--------------15-------------------------------------|
D|---------------------------------------------------------------------------|

Nothing too complicated but sounds awesome. I tabbed this by ear so this is my version of
it. Please rate. Thanks

            
            
Suggest correction
Creating personal tab
Creating personal tab
You can edit any tab online and save it as your Personal.

You can edit, replace or remove any tab part or add personal notes – all changes will be seen only by you.

Personal tabs can be accessed anytime from any device, even offline.
Learn more »
comments
print report bad tab
2 comments total.
0 reply
toateridax2010 74 Jan 18, 2016 05:37 AM, edited at 10:38 am

BEFORE the drums? So then this would be the xylophone part you're transcribing? Really wrong.

guest
Wanna post a correction for this tab? Suggest correction