Oops, an error
Loading. Please wait.
101,197 views 96 this week
12 commentsread comments
1 2 3 4 5
x 24
add to favorites
×
Save as Personal and add changes to this tab that will be seen only by you. Learn more ›
×
You can save this tab as Personal to edit and correct it or add notes. All changes will be seen only by you. Learn more »
launch autoscroll
font size
0
reset
how to read this tab
guitar tuner
backing track
0:00
0:00
edit
Autoscroll
slow
fast
+/-
esc
set tempo
stop
Band:   Avenged Sevenfold
Song:   Nightmare (solo)
Tuning: Drop D

Guitar 1: Synyster Gates
Guitar 2: Zachy Vengeance
Guitar 3: Synyster Gates

[Intro Variation] (Pre-solo)
Guitar 3 (Rhythm) (Both speakers)
E||---------------------------------------------------------------|
B||---------------------------------------------------------------|
G||---------------------------------------------------------------|
D||-0-------------------------------------------------------------|
A||-0-------------------------------------------------------------|
D||-0-------------------------------------------------------------|

Guitar 1 (Lead) (Left speaker)
E||-/17~~-17-16~~-16-15~~-15-----------------------------9-10~~~~-|
B||--------------------------18-15~~~~~~~~---------10-11----------|
G||-------------------------------------------9-12----------------|
D||----------------------------------------11---------------------|
A||---------------------------------------------------------------|
D||---------------------------------------------------------------|

E||-/17~~-17-16~~-16-15~~-15--------------------------------------|
B||--------------------------18-15----15~~~~--------8-9-10-11~~~~-|
G||--------------------------------14--------7-9-10---------------|
D||---------------------------------------------------------------|
A||---------------------------------------------------------------|
D||---------------------------------------------------------------|

E||------------------------------------------------------|
B||-11-10-9-8~~~~-/15~~~~-13~~~~~~-12-13-13/17~~~~~~~~~~-|
G||------------------------------------------------------|
D||------------------------------------------------------|
A||------------------------------------------------------|
D||------------------------------------------------------|

Guitar 2 (Harmony) (Right speaker)
E||-/13~~-13-12~~-12-11~~-11-10---------------------------12-13~~~~-|
B||-----------------------------10~~~~~~~~-------11-14-15-----------|
G||-------------------------------------------12--------------------|
D||----------------------------------------14-----------------------|
A||-----------------------------------------------------------------|
D||-----------------------------------------------------------------|

E||-/13~~-13-12~~-12-11~~-11-10---------------------6-7-8-10~~~~-|
B||-----------------------------10----10~~~~-6-8-10--------------|
G||--------------------------------10----------------------------|
D||--------------------------------------------------------------|
A||--------------------------------------------------------------|
D||--------------------------------------------------------------|

E||-10-9-8-7~~~~-/13~~~~-12~~~~~~-11-12-12/15~~~~~~~~~~~-|
B||------------------------------------------------------|
G||------------------------------------------------------|
D||------------------------------------------------------|
A||------------------------------------------------------|
D||------------------------------------------------------|

[Solo 1]
Guitar 2 (Rhythm)
E||--------------------------------------|--------------------------------------|
B||--------------------------------------|--------------------------------------|
G||--------------------------------------|--------------------------------------|
D||--------------------------------------|--------------------------------------|
A||-0-------3p0---0-----3p0-----3BU(4)---|-0-------3p0---0-----3p0-----3BU(4)---|
D||-0-----003p0---0---003p0---003BU(4)---|-0-----003p0---0---003p0---003BU(4)---|

E||--------------------------------------|---------------------------------|
B||--------------------------------------|---------------------------------|
G||--------------------------------------|-3-3-3-3-4-4-4-4-5-5-5-5-6-6-6-6-|
D||--------------------------------------|-3-3-3-3-5-5-5-5-5-5-5-5-7-7-7-7-|
A||-0-------3p0---0-----3p0-----3BU(4)---|-1-1-1-1-2-2-2-2-3-3-3-3-4-4-4-4-|
D||-0-----003p0---0---003p0---003BU(4)---|---------------------------------|

Guitar 1 (Lead)
E||-/17~~~~~~~~~~~~~~~~~~~~~~~~~~---------------------13-14-15-|
B||------------------------------------------14-15-16----------|
G||---------------------------------14-15-16-------------------|
D||------------------------------------------------------------|
A||------------------------------------------------------------|
D||------------------------------------------------------------|

E||-16~~~~~~~~~~~~~~~~~~~~~~~~~~---------------------12-13-14-|
B||-----------------------------------------13-14-15----------|
G||--------------------------------13-14-15-------------------|
D||-----------------------------------------------------------|
A||-----------------------------------------------------------|
D||-----------------------------------------------------------|

E||-15~~~~~~~~~~~~~~~~~~~~~~~~~~---15BU(17)-----(15)-|
B||--------------------------------------------------|
G||--------------------------------------------------|
D||--------------------------------------------------|
A||--------------------------------------------------|
D||--------------------------------------------------|
 
E||-13~~~~~~~~~~~~~~~~-17p13-------------17p13---------|
B||--------------------------15p14------------15-------|
G||--------------------------------15p14--------14-----|
D||-----------------------------------------------15---|
A||-------------------------------------------------17-|
D||----------------------------------------------------|

Guitar 1 (Lead)
E||------------------------------------------------------17---18-------17~~~~~~-|
B||-----------------------------------------------18----------------------------|
G||----------------14---15-------14~~~~~~-/19-----------------------------------|
D||---------15------------------------------------------------------------------|
A||-/17-------------------------------------------------------------------------|
D||-----------------------------------------------------------------------------|

Guitar 3 (Harmony)
E||------------------------------------------------5---6-------5~~~~~~-|
B||------------------------------------------6-------------------------|
G||--------------2---3-------2~~~~~~--/7-------------------------------|
D||--------3-----------------------------------------------------------|
A||-/5-----------------------------------------------------------------|
D||--------------------------------------------------------------------|

Guitar 1 (Lead)
E||----------------------------------------------------------------------------|
B||-20BU(22)(20)----------18-------17-----18-----20---20BU(22)~~~~~~~~~~~~~~~~-|
G||--------------19------------------------------------------------------------|
D||----------------------------------------------------------------------------|
A||----------------------------------------------------------------------------|
D||----------------------------------------------------------------------------|

Guitar 1 (Lead)
    Tr---------------------------------------------------------------
E||-------------------------------------------------------------------|
B||-------------------------------------------------------------------|
G||-7-----------------------10-------5-----------------------12-------|
D||-------------------------------------------------------------------|
A||-------------------------------------------------------------------|
D||-------------------------------------------------------------------|

Guitar 3 (Harmony)
    Tr-----------------------------------------------------------------
E||-13-----------------------17-------12-----------------------19-------|
B||---------------------------------------------------------------------|
G||---------------------------------------------------------------------|
D||---------------------------------------------------------------------|
A||---------------------------------------------------------------------|
D||---------------------------------------------------------------------|

Guitar 1 (Lead)
    Tr------------------------------------------------------
E||-------------------------------------------------------------------|
B||-------------------------------------------------------------------|
G||-4-----------------------10-------2-----5-----2---1----------------|
D||----------------------------------------------------------3~~~~~~~-|
A||-------------------------------------------------------------------|
D||-------------------------------------------------------------------|

Guitar 3 (Harmony)
    Tr--------------------------------------------------------
E||-10-----------------------17-------9-----12-----9---8-------5~~~~~~~-|
B||---------------------------------------------------------------------|
G||---------------------------------------------------------------------|
D||---------------------------------------------------------------------|
A||---------------------------------------------------------------------|
D||---------------------------------------------------------------------|

Guitar 1 (Lead)
E||------------------------------5h10-/17p13------------------------|
B||-----------------------------------------15------15p14-15~~-14~~-|
G||-----------------5-6-5-6-7h10--------------14--14----------------|
D||---------6-7-6-7-----------------------------15------------------|
A||-5-8-5-8---------------------------------------------------------|
D||-----------------------------------------------------------------|

Guitar 3 (Harmony)
E||---------------------------------------9h13-/20p17------------------------|
B||--------------------------------------------------18------18p17-18~~-17~~-|
G||-----------------------9-10-9-10-10h14--------------19--19----------------|
D||-----------10-11-10-11--------------------------------19------------------|
A||-8-12-8-12----------------------------------------------------------------|
D||--------------------------------------------------------------------------|

Guitar 1 (Lead)
E||-----------------------12-13-14-15~~~~~~~~~~~~-15-14-13-12-------|
B||-15~~~~~~~~~~-11-14-15-------------------------------------15-14-|
G||-----------------------------------------------------------------|
D||-----------------------------------------------------------------|
A||-----------------------------------------------------------------|
D||-----------------------------------------------------------------|

Guitar 3 (Harmony)
E||-----------------------15-16-17-18~~~~~~~~~~~~-18-17-16-15-------|
B||-18~~~~~~~~~~-15-17-18-------------------------------------19-18-|
G||-----------------------------------------------------------------|
D||-----------------------------------------------------------------|
A||-----------------------------------------------------------------|
D||-----------------------------------------------------------------|

Guitar 1 (Lead)
E||-----------------------12-13-15-/18-~~~~~~~~~~-17~~~~~~~~~~~~~~~-|
B||-13~~~~~~~~~~-13-14-15-------------------------------------------|
G||-----------------------------------------------------------------|
D||-----------------------------------------------------------------|
A||-----------------------------------------------------------------|
D||-----------------------------------------------------------------|

Guitar 3 (Harmony)
E||-----------------------15-16-17----------------------------------|
B||-17~~~~~~~~~~-16-17-18----------/15~~~~~~~~~~~-14~~~~~~~~~~~~~~~-|
G||-----------------------------------------------------------------|
D||-----------------------------------------------------------------|
A||-----------------------------------------------------------------|
D||-----------------------------------------------------------------|


[Mid-section]
Guitar 1 (Lead)
E||-----------------------------------------------------------------|
B||-----------------------------------------------------------------|
G||-----------------------------------------------------------------|
D||-7~~~~~~~~~~~~~~-6~~~~~~-5~~~~~~---------------------------------|
A||---------------------------------8-5---5--------------WB-(8)-(5)-|
D||-------------------------------------7---------------------------|

Guitar 3 (Harmony)
E||-----------------------------------------------------------------|
B||-----------------------------------------------------------------|
G||-5~~~~~~~~~~~~~~-4~~~~~~-3~~~~~~-2-------------------------------|
D||-----------------------------------3-0-3--------------WB-(7)-(3)-|
A||-----------------------------------------------------------------|
D||-----------------------------------------------------------------|

Guitar 2 (Rhythm)
E||-----------------------------------------------------------------|
B||-----------------------------------------------------------------|
G||-----------------------------------------------------------------|
D||-----------------------------------------------------------------|
A||-0---------0-----0-----0-----0---0-----0-----0---0-----0-----0---|
D||-0-0-0-0-0-0-0-0-0-0-0-0-0-0-0-0-0-0-0-0-0-0-0-0-0-0-0-0-0-0-0-0-|


[Solo 2]
Guitar 1 (Lead)
E||---------------------------------------------------------13-15-17-18-18---18-|-17-|
B||--------------------------------14h15p14--------14h15-17---------------------|----|
G||-----------14h15p14--------14h15--------15p14h15-----------------------------|----|
D||------14h15--------15p14h15--------------------------------------------------|----|
A||-13h15-----------------------------------------------------------------------|----|
D||-----------------------------------------------------------------------------|----|

Guitar 2 (Harmony)
E||----------==-----------------------------------------------------------------|----|
B||--------------------------------------------14h15p14--------14h15-20-20---20-|-18-|
G||-----------------------14h15p14--------14h15--------15p14h15-----------------|----|
D||------------------14h15--------15p14h15--------------------------------------|----|
A||-------------13h15-----------------------------------------------------------|----|
D||-----------------------------------------------------------------------------|----|

That's all guys, enjoy :)



************************************

Legend:
Slide Up:     /
Slide Down:   \
Vibrato:      ~~~
Bend Up:      BU(?)
Hammer On:    h
Pull Off:     p
Tremelo Pick: TR
Whammy Bar:   WB

************************************

            
            
Suggest correction
Creating personal tab
Creating personal tab
You can edit any tab online and save it as your Personal.

You can edit, replace or remove any tab part or add personal notes – all changes will be seen only by you.

Personal tabs can be accessed anytime from any device, even offline.
Learn more »
comments
print report bad tab
12 comments total. Showing first comments.
+1 reply
blackbird51 112 May 27, 2010 07:36 AM

http://www.youtube.com/watch?v=IT_ufwMXFig

If you want to know how to play it right.

0 reply
slash.r0cks 4,820 Jun 03, 2010 01:48 AM

Seth's right; this is exactly the same as his tab for the solo.
Another thing, you're only young and you've still got some things you need to learn about tabbing here, one of which is checking other tabs before submitting your own. If you use stuff from other tabs, REFERENCE!

+2 reply
aweisti 214 Jun 30, 2010 03:18 PM

I dont care whos tab it is its wrong in a lot of places

guest
You may want to rate the tab now too:
select rating
Wanna post a correction for this tab? Suggest correction