Oops, an error
Loading. Please wait.

Nightmare Tab

524,938 views 670 this week
7 commentsread comments
1 2 3 4 5
worth learning
x 29
add to favorites
launch autoscroll
font size
0
reset
how to read this tab
guitar tuner
Tab Pro tools
  • play this tab
  • loop segment
  • change instrument
  • show fretboard
  • metronome
Autoscroll
slow
fast
+/-
esc
set tempo
stop
Contributor
Difficulty
Tuning
advanced
D A D G B E
Nightmare
  
this is pretty close feel free to email me if you notice something wrong
 hope you like


intro 
  guitar 1
E[--------------------------------------------------------]
B[--------------------------------------------------------]
G[--------------------------------------------------------]
D[-------/7-7-6-6-5-5-----------------5-7-8---------------]x4  
A[--------------------8-5s\3/5~-4-5-7---------------------]
D[--------------------------------------------------------]

E[--------------------------------------------------------]
B[--------------------------------------------------------]play on the fourth play through of intro
G[-----------------5/7-7-5--5h7h9-s/-14sustain------------]
D[-----(8)---7-6-5----------------------------------------]
A[--------------------------------------------------------]
D[--------------------------------------------------------]

   guitar 2
E[-------------------------------------------------------------]
B[-------------------------------------------------------------]
G[-------------------------------------------------------------]
D[------------------------------------------------------------0]let last note ring
A[------------------------------------------------------------0]
D[00000----000000----000000-0000-0000-0000-0000-0000-0000-00000]
  ............................PM..............................

E[-------------------------------------------------------------]
B[-------------------------------------------------------------]
G[-------------------------------------------------------------]
D[---------0-----------0-----------03-3/5-5-5/5-5-5/6~~~~~~~~~-]
A[---------0-----------0-----------01-1/2-2-2/3-3-3/4~~~~~~~~~-]
D[0000000000--0000000000--0000000000---------------------------]
  ...pm....   ...pm....   ....pm...
  
E[--------------------------------------------------------]
B[--------------------------------------------------------]
G[--------------------------------------------------------]
D[--------------------------------------------------------]
A[--------------------------------------------------------]
D[00000000000000000000000000000000000000000000000000000000]

        both guitars

E[--------------------------------------------------------]
B[--------------------------------------------------------]
G[--------------------------------------------------------]
D[--------------------------------------------------------]
A[--------------------------------------------------------]
D[--3^4-0-00000--3^4-0-00000--3^4-0-00000--530530530530---]
 (slowly bend up to 4th fret then sturm the open 0 note)
    (repeat this till "flesh is burning in the air")

	guitar 1
E[--------------------------------------------------------]
B[--------------------------------------------------------]
G[--------------------------------------------------------]
D[-----------7--6--5--5p0-repeat 4x ----------------------]
A[--------------------------------------------------------]
D[--------------------------------------------------------]


	guitar 2
E[--------------------------------------------------------]
B[--------------------------------------------------------]
G[--------------------------------------------------------]
D[-3----3----3---3----3----3---3----3----3----------------]x4
A[-3----3----3---3----3----3---3----3----3----------------]
D[-3-00-3-00-3-0-3-00-3-00-3-0-3-00-3-00-3-0-530530530530-]
(on 4th play through 530 is repeated more just hear the song and youll get it)


	both guitars
E[--------------------------------------------------------]
B[--------------------------------------------------------]
G[--------------------------------------------------------]
D[-0~--3~--3~--3~----0~--3~--3~--3~--2-22-2-22-2-2-2------]
A[-0~--5~--3~--1~----0~--5~--3~--1~--0-00-0-00-0-0-0------]
D[-0~------3~--------0~------3~--------pm---pm---pm-------]
(synyster gates does some whammy affects between these to sections)

	
	both guitars

E[--------------------------------------------------------]
B[--------------------------------------------------------]
G[--------------------------------------------------------]
D[--------------------------------------------------------]
A[--------------------------------------------------------]
D[--3^4-0-00000--3^4-0-00000--3^4-0-00000--530530530530---]
 (slowly bend up to 4th fret then sturm the open 0 note)
    (repeat this till "flesh is burning in the air")

	guitar 1
E[--------------------------------------------------------]
B[--------------------------------------------------------]
G[--------------------------------------------------------]
D[-----------7--6--5--5p0-repeat 4x ----------------------]
A[--------------------------------------------------------]
D[--------------------------------------------------------]


	guitar 2
E[--------------------------------------------------------]
B[--------------------------------------------------------]
G[--------------------------------------------------------]
D[-3----3----3---3----3----3---3----3----3----------------]x4
A[-3----3----3---3----3----3---3----3----3----------------]
D[-3-00-3-00-3-0-3-00-3-00-3-0-3-00-3-00-3-0-530530530530-]
(on 4th play through 530 is repeated more just hear the song and youll get it)


	both guitars
E[--------------------------------------------------------]
B[--------------------------------------------------------]
G[--------------------------------------------------------]
D[-0~--3~--3~--3~----0~--3~--3~--3~--2-22-2-22-2-2-2------]
A[-0~--5~--3~--1~----0~--5~--3~--1~--0-00-0-00-0-0-0------]
D[-0~------3~--------0~------3~--------pm---pm---pm-------]

	interlude   guitar 1
E[--/17-17-16-16-15-15-13---------------------------------]
B[-----------------------15---------------15--17/18-------]
G[---------------------------------13--16-----------------]
D[--------------------------12--15------------------------]
A[--------------------------------------------------------]
D[--------------------------------------------------------]


E[--/17-17-16-16-15-15-13---------------------------------]
B[------------------------15-13-15---------------15--17---]
G[----------------------------------------13--16----------]
D[---------------------------------12--15-----------------]
A[--------------------------------------------------------]
D[--------------------------------------------------------]


E[--------------------------------------------------------]
B[------------------13/15--15--13--13h15/17---------------]
G[--15~~~-14-13-12~---------------------------------------]
D[--------------------------------------------------------]
A[--------------------------------------------------------]
D[--------------------------------------------------------]

	guitar 2
E[--------------------------------------------------------]
B[--------------------------------------------------------]
G[--------------------------------------------------------]
D[--0~~~~~~~~---0~~~~~~~---3--3/5-5-5/5-5-5/6-------------]
A[--0~~~~~~~~---0~~~~~~~---1--1/2-2-2/3-3-3/4-------------]
D[--0~~~~~~~~---0~~~~~~~----------------------------------]

	solo guitar 1 couldnt get the begining sweeps sorry
E[-17--/16--/15-15^16v15--13--17p13\------17p13\----------]
B[----/----/------------------------\15\---------\15\-----]
G[---/----/-----------------------------14-----------14---]
D[--/----/------------------------------------------------]
A[--------------------------------------------------------]

E[---------------------13--17-18-17---15~^17v15----13--12-13-15-15^17-]
B[------------------15--------------------------15--------------------]
G[-------14-15-14-----------------------------------------------------]
D[12--15--------------------------------------------------------------]
A[--------------------------------------------------------------------]
D[--------------------------------------------------------------------]

 This is the fast picking part, to save space i just put the frets you strum, and slide up to.
	(listen to the song for the slide ups they can be a little confusing)
E[--------------------------------------------------------]
B[-15picking/19-13---/17-12----/15-10---12-13-12-10-8-10--]
G[--------------------------------------------------------]
D[--------------------------------------------------------]
A[--------------------------------------------------------]
D[--------------------------------------------------------]
									|
							(this part here v is fast picking as well)
E[-----------------------------------------12-13-15///24\\\15-15-14-12---------------------]
B[---------------------------------12-13-15---------------------------15-14-12-14-12--15-14]
G[-------------------------12-14-15-------------------------------------------------14-----]
D[----------------12-14-15-----------------------------------------------------------------]
A[--------12-14-15-------------------------------------------------------------------------]
D[12-14-15---------------------------------------------------------------------------------]


E[------------------------17-------------------------------------18-17---------------------]
B[15---141414151515161616-----1515141514151413---17171818191920----------------------------]
G[-----------------------------------------------------------------------------------------]
D[----------------------------------------------------------------------7-6h7p6\\5---------]
A[--------------------------------------------------------------------------------8p5\3/5~~]
D[-----------------------------------------------------------------------------------------]

	solo guitar 2 (rythem)
E[--------------------------------------------------------]
B[--------------------------------------------------------]
G[--------------------------------------------------------]
D[-0-----------------3---3-5-5-6--------------------------]
A[-0----30-0----30---3---1-2-3-4--------------------------]
D[-0--0030-0--0030-003---^^^^^^^^-------------------------]
   (play 3 times......)  ||||||||
		(then this after third time)

	Both guitars
E[------------]
B[------------]
G[------------]
D[-0----------]x13
A[-0---0---0--]
D[-0-000-0000-]

	guitar 1 solo 2 (this is probably wrong but i tried)
E[------------------------------------------15-14-12-12/18-18-18-17---------------------]
B[--------------------------15-14-12-1214-15--------------------------------------------]
G[---------15-14-12-12-14-15------------------------------------------------------------]
D[-12-14-15---------------------------------------------------------7-6h7p6\\5----------]
A[----------------------------------------------------------------------------8p5\3/5~~~]
D[--------------------------------------------------------------------------------------]

	guitar 2 solo 2 (rythem)
E[------------------------------------------------------------]
B[------------------------------------------------------------]
G[------------------------------------------------------------]
D[-3-3-3-3-3-3-3-3-3-3-3-3-3-3-3-3-3-3-3-3-3-3-3-3-3-3--------]
A[-1-1-1-1-1-1-1-1-1-1-1-1-1-1-1-1-1-1-1-1-1-1-1-1-1-1--------]
D[-----------------------------------------------------3^4-0--]

	Both guitars
E[------------]
B[------------]
G[------------]
D[-0----------]x13
A[-0---0---0--]
D[-0-000-0000-]

	both guitars
E[------------------------------------------------------------]
B[------------------------------------------------------------]
G[------------------------------------------------------------]
D[-3-3-3-3-5-5-5-5-3-3-3-3-5-5-5-5-3-3-3-3-1-1-1-1-3--5--5--6-]
A[-1-1-1-1-3-3-3-3-1-1-1-1-3-3-3-3-1-1-1-1-3-3-3-3-1--2--3--4-]
D[------------------------------------------------------------]

E[------------------------------------------------------------]
B[------------------------------------------------------------]
G[------------------------------------------------------------]
D[------------------------------------------------------------]
A[------------------------------------------------------------]
D[000000000000000000000000000000000000000000000000000000000000]
  ...............................pm...........................

	outro both guitars
E[---------------------------------------------------------------------]
B[---------------------------------------------------------------------]
G[---------------------------------------------------------------------]
D[-0~--3~--3~--3~----0~--3~--3~--3~-x4 then this(2-22-2-22-2-2-2)------]
A[-0~--5~--3~--1~----0~--5~--3~--1~-x4 then this(0-00-0-00-0-0-0)------]
D[-0~------3~--------0~------3~-------------------pm---pm---pm---------]
  
comments
print report bad tab
7 comments total. Showing first comments.
0 reply
johnnyexile wrote on May 21 2010, 12:14 pm

missed alot, overall its okay, no way it deserves 1 star though, i rated it up, hope it helped.

+1 reply
kahok5ownage wrote on April 5 2011, 11:53 am

both guitars
E[--------------------------------------------------------]
B[--------------------------------------------------------]
G[--------------------------------------------------------]
D[-0~--3~--3~--3~----0~--3~--3~--3~--2-22-2-22-2-2-2------]
A[-0~--5~--3~--1~----0~--5~--3~--1~--0-00-0-00-0-0-0------]
D[-0~------3~--------0~------3~--------pm---pm---pm-------]


this should be

	both guitars
E[----------------------------------------------------------]
B[----------------------------------------------------------]
G[-----------------------------------------------------------]
D[-0~--3~--3~--3~----0~--3~--3~--3~x2--2-22-2-22-2-2-2------]
A[-0~--5~--3~--1~----0~--5~--3~--1~----0-00-0-00-0-0-0------]
D[-0~------3~--------0~------3~----------pm---pm---pm-------]

0 reply
motresmagoo wrote on May 14 2013, 06:05 pm

This song is mostly wrong, guitar 1 starts on a different string ( which means that the rest of that riff is wrong ). The tuning is in Drop D, not E standard. There are NO hammer on or pull offs in this song AT ALL.

I want to post or [tab]
guest
You may want to rate the tab now too:
select rating
Please do not post tabs as comments. Select "correction" instead!