Oops, an error
Loading. Please wait.

Paradigm tab

version 1
version 1

Whole song

  • Tasty song, that has needed a regular tab for a while now.

Interactive

544 views 51 this week
1 commentread comment
1 2 3 4 5
1 last vote to show rating
add to favorites
×
Save as Personal and add changes to this tab that will be seen only by you. Learn more ›
×
You can save this tab as Personal to edit and correct it or add notes. All changes will be seen only by you. Learn more »
launch autoscroll
font size
0
reset
how to read this tab
guitar tuner
edit
Autoscroll
slow
fast
+/-
esc
set tempo
stop
About this tab version
Tasty song, that has needed a regular tab for a while now. Was this info helpful? Yes No
[Intro]
(Guitar 1)
D#|-------------|--------------|-------------|---------------------|
A#|-------------|--------------|-------------|---------------------|
F#|7------------|7---6---------|6---7--------|6---8----------8-----|
C#|----0--------|--------0-----|--------0----|--------0------------|(x2)
G#|5---0--------|5---4---0-----|4---5---0----|4---6---0------6-----|
C#|----0--------|--------0-----|--------0----|--------0------------|

(Guitar 2)
D#|-------------|--------------|-------------|---------------------|
A#|-------------|--------------|-------------|---------------------|
F#|7------------|7---6---------|6---7--------|6---8----------8-----|
C#|----0--------|--------0-----|--------0----|--------0------------|
G#|5---0--------|5---4---0-----|4---5---0----|4---6---0------6-----|
C#|----0--------|--------0-----|--------0----|--------0------------|

D#|---------------------------------------------------|------------------------------------------------|
A#|10-10-10-10-10-10-10-10-10-10-10-10-10-10-10-10-10-|9-9-9-9-9-9-9-9-9-9-9-9-9-9-9-9-9-9-9-9-9-9-9-9-|
F#|---------------------------------------------------|------------------------------------------------|
C#|---------------------------------------------------|------------------------------------------------|(x2)
G#|---------------------------------------------------|------------------------------------------------|
C#|---------------------------------------------------|------------------------------------------------|

[Verse 1]
(Guitar 1)
D#|------------------------|------------------------|------------------------|------------------------|
A#|------------------------|------------------------|------------------------|------------------------|
F#|------------------------|------------------------|------------------------|------------------------|
C#|------------------------|------------------------|------------------------|------------------------|
G#|------------5-----------|------------5-----------|------------4-----------|------------4-----------|
C#|5-5-5-5-5-5---8-7-6-5-4-|5-5-5-5-5-5---8-7-6-5-4-|4-4-4-4-4-4---7-6-5-4-3-|4-4-4-4-4-4---7-6-5-4-3-|
   PM------------------------------------------------------------------------------------------------|

D#|------------------------|------------------------|------------------------|------------------------|
A#|------------------------|------------------------|------------------------|------------------------|
F#|------------------------|------------------------|------------------------|------------------------|
C#|------------------------|------------------------|------------------------|------------------------|(x2)
G#|------------5-----------|------------5-----------|------------1-----------|------------1-----------|
C#|5-5-5-5-5-5---8-7-6-5-4-|5-5-5-5-5-5---8-7-6-5-4-|1-1-1-1-1-1---4-3-2-1-0-|1-1-1-1-1-1---4-3-2-1-0-|
   PM------------------------------------------------------------------------------------------------|

(Guitar 2)
D#|------------------------|------------------------|------------------------|------------------------|
A#|10------8---------------|3-----------------------|6-----------------------|3-----------------------|
F#|12b14---10b12-----------|5b7---------------------|8b10--------------------|5b7---------------------|
C#|------------------------|------------------------|------------------------|------------------------|
G#|------------------------|------------------------|------------------------|------------------------|
C#|------------------------|------------------------|------------------------|------------------------|

[Chorus]
(Guitar 1 and 2)
D#|--------------------------------|--------------------------------|
A#|--------------------------------|--------------------------------|
F#|--------------------------------|--------------------------------|
C#|--------------------------------|7-7-7-7-7-7-7-7-7-7-7-7-7-7-7-7-|
G#|5-5-5-5-5-5-5-5-5-5-5-5-5-5-5-5-|5-5-5-5-5-5-5-5-5-5-5-5-5-5-5-5-|
C#|5-5-5-5-5-5-5-5-5-5-5-5-5-5-5-5-|4-4-4-4-4-4-4-4-4-4-4-4-4-4-4-4-|

D#|--------------------------------|--------------------------------|
A#|--------------------------------|--------------------------------|
F#|--------------------------------|--------------------------------|
C#|3-3-3-3-3-3-3-3-3-3-3-3-3-3-3-3-|5-5-5-5-5-5-5-5-7-7-7-7-7-7-7-7-|(x2)
G#|1-1-1-1-1-1-1-1-1-1-1-1-1-1-1-1-|3-3-3-3-3-3-3-3-5-5-5-5-5-5-5-5-|
C#|--------------------------------|--------------------------------|

D#|--------------------------------|
A#|--------------------------------|
F#|--------------------------------|
C#|5---------------6---------------|
G#|5---------------6---------------|
C#|5---------------6---------------|

[Post-Verse]
(Guitar 1)
D#|--------------------------------|--------------------------------|
A#|--------------------------------|--------------------------------|
F#|7---------------7-----------7---|6---------------6-----------6---|
C#|----0-------0-------0-----------|----0-------0-------0-----------|(x2)
G#|5---0-------0---5---0-------5---|4---0-------0---4---0-------4---|
C#|----0-------0-------0-----------|----0-------0-------0-----------|

(Guitar 2)
D#|5-------5-------5-------5-------|4-------4-------4-------4-------|
A#|----3-------3-------3-------3---|----3-------3-------3-------3---|
F#|--------------------------------|--------------------------------|
C#|--------------------------------|--------------------------------|(x2)
G#|--------------------------------|--------------------------------|
C#|--------------------------------|--------------------------------|

[Solo]
(Guitar 1)
D#|----------------|------------------|
A#|----------------|------------------|
F#|----------------|------------------|
C#|----------------|------------------|(x4)
G#|----------------|------------------|
C#|5-------7-------|8-------10---12---|

(Guitar 2)
D#|----------------------------------|-----------------------------------|
A#|-------------------11-15-14-11----|-----------------11-15-14-13-11----|
F#|12--------------12-------------12-|11~-----------11----------------11-|
C#|---12-8----8-12-------------------|-----------12----------------------|
G#|--------10------------------------|--------13-------------------------|
C#|----------------------------------|-----------------------------------|

D#|-------------------10-------------|-----------------------------------|
A#|----------------11----13-11-------|-----------------------------------|
F#|10~----------10-------------12-10-|9-------10-9-10-12b13--------------|
C#|----------12----------------------|-----------------------------------|(x2)
G#|-------13-------------------------|-----------------------------------|
C#|----------------------------------|-----------------------------------|

                                                        P.H.
D#|------------------------------------|--------------------------------------|
A#|---------------------11-15-14-11----|--------------------------------------|
F#|12----------------12-------------12-|11-10-9-------9-10--------------------|
C#|---12----------12-------------------|--------13-12-------------------------|
G#|------13-10-13----------------------|--------------------------------------|
C#|------------------------------------|--------------------------------------|

D#|--------------6-10-8-6-----|------------------------|-------------------------|
A#|-----------------------8-6-|5-----------------------|-------------------------|
F#|10-------7-10--------------|--8-7-6-5---------------|-----------------------7-|
C#|-------8-------------------|----------8-7-6-5-------|-----------------5-7-8---|
G#|---------------------------|------------------8-7-6-|5--------------5---------|
C#|---------------------------|------------------------|--10-8-7-5-7-8-----------|

D#|----------8-10-15-10-15-10-15-18/|22-18-17-15-10---------------------|
A#|7-8-10-11------------------------|---------------11-10---------------|
F#|---------------------------------|---------------------12------------|
C#|---------------------------------|------------------------12-8-------|
G#|---------------------------------|-----------------------------12-10-|
C#|---------------------------------|-----------------------------------|

D#|------------------------15-18-22-18b22-|
A#|---------------------15----------------|
F#|------------------15-------------------|
C#|---------------17----------------------|
G#|12-10-12-13-17-------------------------|
C#|---------------------------------------|

(Guitar 1 and 2)
D#|---------------------------------|
A#|---------------------------------|
F#|---------------------------------|
C#|---------------------------------|
G#|5-5--------5--4--3-------3-3-----|
C#|5-5--------5--4--3-------3-3-----|
   PM-|                     PM-|

(Guitar 1)                      1st Ending                   2nd Ending
D#|----------------------------|----------------------------|----------------------------|
A#|----------------------------|----------------------------|----------------------------|
F#|----------------------------|----------------------------|----------------------------|
C#|----------------------------|----------------------------|----------------------------|(x4)
G#|----------------------------|----------------------------|----------------------------|
C#|0-0-0--0-0-0--0-0-0--0-0-0--|0-0-0--0-0-0--0-0-0--0-0-0--|0-0-0--3-3-3--2-2-2--1-1-1--|
   PM-----------------------------------------------------------------------------------|

D#|----------------------------|----------------------|
A#|----------------------------|----------------------|
F#|----------------------------|----------------------|
C#|----------------------------|----------------------|(x2)
G#|----------------------------|--------------8---5---|
C#|7-7-7--7-7-7--7-7-7--7-7-7--|7-7-7--7-7-7--8---5---|
   PM----------------------------------------|

D#|--------------------------------|--------------------------------|
A#|--------------------------------|--------------------------------|
F#|--------------------------------|--------------------------------|
C#|--------------------------------|--------------------------------|
G#|0-------6--5--3-0-------6--5--3-|0-------6--5--3-0-------1-------|
C#|0-------6--5--3-0-------6--5--3-|0-------6--5--3-0-------1-------|


(Guitar 2)
D#|--------------------------------|------------------------------|
A#|13b15--------15-13--------------|-13-13-13--13-13-13--13-------|
F#|-------------------14-12b14-----|(14)--------------------------|
C#|--------------------------------|------------------------------|
G#|--------------------------------|------------------------------|
C#|--------------------------------|------------------------------|

D#|------------------------|----------------------------------------------------------------------|
A#|------13----------------|----------------------------------------------------------------------|
F#|12b14----12br14---10----|12br14--10----12br14--10----12br14--10----12br14--10----12br14--10----|
C#|---------------------12-|-----------12------------12------------12------------12------------12-|
G#|------------------------|----------------------------------------------------------------------|
C#|------------------------|----------------------------------------------------------------------|

D#|--------------------------------------------------|
A#|------14-13-------10-9-8--------------------------|
F#|12b14--------------------10-----------------------|
C#|----------------------------12-11-10--------------|
G#|-------------------------------------12-10-8------|
C#|---------------------------------------------12---|

D#|---------------------------|------------------------------------------|
A#|---------------------------|-------------------------13--------13--15-|
F#|---------------------------|---10-13-14-10-----13-14----14-15---------|
C#|--------------------10-12--|12-------------12-------------------------|
G#|8------8-11----8-11--------|------------------------------------------|
C#|---12-------12-------------|------------------------------------------|

D#|------13-16--------13-15--------13-16----20b22~--------|
A#|13-15--------13-15--------13-15------------------------|
F#|-------------------------------------------------------|
C#|-------------------------------------------------------|
G#|-------------------------------------------------------|
C#|-------------------------------------------------------|

D#|15-16-20-16-15-13-----------------13-15-16-20-16--|15-13----------------13--15-16-20-16-15-----------|
A#|------------------13-----------13-----------------|------13----------13--------------------13--------|
F#|---------------------13--12-13--------------------|---------13-12-13--------------------------13-12--|
C#|--------------------------------------------------|--------------------------------------------------|
G#|--------------------------------------------------|--------------------------------------------------|
C#|--------------------------------------------------|--------------------------------------------------|

D#|------13-15-16-20-16--------13-15-16-20-16-20b22~------------|
A#|---13--------------------13----------------------------------|
F#|13-------------------13--------------------------------------|
C#|-------------------------------------------------------------|
G#|-------------------------------------------------------------|
C#|-------------------------------------------------------------|

D#|17-------16-17-18--17-16-17--17-------15-18-17--15--------|--------------------------------------15-|
A#|---------------------------------------------------17-14--|14---------------------------------17----|
F#|----------------------------------------------------------|---15-14---------------------14-18-------|
C#|----------------------------------------------------------|----------17-14-----------14-------------|
G#|----------------------------------------------------------|----------------16-----16----------------|
C#|----------------------------------------------------------|--------------------17-------------------|

D#|18-15------------------------15-18-17-18-17-18-19-20-|21----------21----21----21-----|
A#|------17---------------14-17-------------------------|24b25-------24b25-24b25-24b25--|
F#|----------18-15----15--------------------------------|-------------------------------|
C#|----------------17-----------------------------------|-------------------------------|
G#|-----------------------------------------------------|-------------------------------|
C#|-----------------------------------------------------|-------------------------------|

D#|17--------17----17----17-----|13--------13----13----13-----|10------------------|----------------|
A#|19b20-----19b20-19b20-19b20--|15b16-----15b16-15b16-15b16--|12b13-----8---------|3---------------|
F#|-----------------------------|-----------------------------|----------10b12-----|5b7-------------|
C#|-----------------------------|-----------------------------|--------------------|----------------|
G#|-----------------------------|-----------------------------|--------------------|----------------|
C#|-----------------------------|-----------------------------|--------------------|----------------|

[Post-Solo]
(Guitar 1 and 2)
D#|--------------------------------|--------------------------------|
A#|--------------------------------|--------------------------------|
F#|--------------------------------|--------------------------------|
C#|--------------------------------|--------------------------------|
G#|0-------0-------1-------1-------|3-------3-------1-------1--3--1-|
C#|0-------0-------1-------1-------|3-------3-------1-------1--3--1-|

D#|--------------------------------|--------------------------------|
A#|--------------------------------|--------------------------------|
F#|--------------------------------|--------------------------------|
C#|--------------------------------|--------------------------------|
G#|0-------0-------1-------1-------|3-------3-------1-------1-------|
C#|0-------0-------1-------1-------|3-------3-------1-------1-------|

D#|--------------------------------|--------------------------------|
A#|--------------------------------|--------------------------------|
F#|--------------------------------|--------------------------------|
C#|--------------------------------|--------------------------------|
G#|5-------5-------5-------5-------|1-------1-------1-------1-------|
C#|5-------5-------5-------5-------|1-------1-------1-------1-------|

D#|--------------------------------|--------------------------------|
A#|--------------------------------|--------------------------------|
F#|--------------------------------|--------------------------------|
C#|5-------5-------5-------5-------|----------------7-------7-------|
G#|3-------3-------3-------3-------|3-------3-------5-------5-------|
C#|--------------------------------|3-------3-------4-------4-------|

[Outro]
(Guitar 1 and 2)
D#|----------------|----------------|----------------|-----------------|
A#|----------------|----------------|----------------|-----------------|
F#|----------------|----------------|----------------|-----------------|
C#|----------------|----------------|----------------|-----------------|(x2)
G#|----------------|----------------|----------------|-----------------|
C#|5---------------|7---------------|8---------------|10-------12------|

D#|--------------------------------|
A#|--------------------------------|
F#|--------------------------------|
C#|--------------------------------|
G#|--------------------------------|
C#|5-------------------------------|


************************************

| P.H.  Pinch Harmonic
| b     Bend
| br    Bend release
| ~     Vibrato
| PM    Palm mute

************************************
Suggest correction
Creating personal tab
Creating personal tab
You can edit any tab online and save it as your Personal.

You can edit, replace or remove any tab part or add personal notes – all changes will be seen only by you.

Personal tabs can be accessed anytime from any device, even offline.
Learn more »
Give kudos to tab author, rate the tab!
1 2 3 4 5
comments
print report bad tab
1 comment total.
0 reply
LMBozovich 706 Jun 24, 2017 01:10 AM

Make sure to rate this tab

guest
You may want to rate the tab now too:
select rating
Wanna post a correction for this tab? Suggest correction