Oops, an error
Loading. Please wait.

Planets bass

version 1
version 1

Whole song

2,151 views 6 this week
3 commentsread comments
1 2 3 4 5
x 6
add to favorites
×
Save as Personal and add changes to this tab that will be seen only by you. Learn more ›
×
You can save this tab as Personal to edit and correct it or add notes. All changes will be seen only by you. Learn more »
launch autoscroll
font size
0
reset
guitar tuner
edit
Autoscroll
slow
fast
+/-
esc
set tempo
stop
-----------------------------------------------------------------------------
                             Planets - Avenged Sevenfold
-----------------------------------------------------------------------------
Tabbed by: Andu Needle
E-mail: sulfur_in_my_lungs@yahoo.com

I think the bass kick in at that wild part at 00:43.

Intro:

G|--------------------------------------------------------------------|
D|--------------------------------------------------------------------|
A|--------------------------------------------------------------------|
D|-00000000(x2)-11111111(x2)-44444444-44444411-00000000-00000014------|

Verse:

G|--------------------------------------------------------------------|
D|--------------------------------------------------------------------|
A|-----------------------------3h5h6----------------------------------|
D|-00000000(x2)-44444444-11110----------------------------------------|(x2)

G|--------------------------------------------------------------------|
D|--------------------------------------------------------------------|
A|--------------------------------------------------------------------|
D|-22222222-222215----------------------------------------------------|(x2)

G|--------------------------------------------------------------------|
D|--------------------------------------------------------------------|
A|--------------------------------------------------------------------|
D|-44444444-444437--44444444-374--------------------------------------|

Pre Chorus:

G|--------------------------------------------------------------------|
D|--------------------------------------------------------------------|
A|--------------------------------------------------------------------|
D|-00000000-33333333-44444444-77777777-00000000-33333333-44444444-----|

G|--------------------------------------------------------------------|
D|--------------------------------------------------------------------|
A|--------------------------------------------------------------------|
D|-4321---------------------------------------------------------------|

Chorus:

G|--------------------------------------------------------------------|
D|--------------------------------------------------------------------|
A|--------------------------------------------------------------------|
D|-0-3-7-3-0-7-4--444-43214-------------------------------------------|(x2)

Post chorus:

G|--------------------------------------------------------------------|
D|--------------------------------------------------------------------|
A|-----------------3333-----------------------------------------------|
D|-0000-4444-7777-------0---------------------------------------------|

Verse 2 is like the first one!
Pre chorus 2 is like the first one!
Chorus 2 is like the first one!

That bridge part before the solo:

G|---------------------------------------------------------------------|
D|---------------------------------------------------------------------|
A|---------------------------------------------------------------------|
D|-00000000000-33333333333-44444444444(x2)-----------------------------|(x6)

Chorus 3:

G|---------------------------------------------------------------------|
D|---------------------------------------------------------------------|
A|---------------------------------------------------------------------|
D|-0~--3-7-4(x3)-444-333-----------------------------------------------|

Solo:

G|---------------------------------------------------------------------|
D|---------------------------------------------------------------------|
A|---------------------------------------------------------------------|
D|-44444444(x2)-0-3-7-3-0-7--------------------------------------------|(x4)

G|---------------------------------------------------------------------|
D|---------------------------------------------------------------------|
A|---------------------------------------------------------------------|
D|-44444444(x2)--------------------------------------------------------|

The second part of the verse is the same like the others!
The last chorus is the same as the others, but the last part of it goes like this:

G|---------------------------------------------------------------------|
D|---------------------------------------------------------------------|
A|---------------------------------------------------------------------|
D|-0-3-7-3-0-7-444-444444----------------------------------------------|

The last solo:

G|---------------------------------------------------------------------|
D|---------------------------------------------------------------------|
A|---------------------------------------------------------------------|
D|-0-3-7-3-0-7-44444444------------------------------------------------|(x3)

G|---------------------------------------------------------------------|
D|---------------------------------------------------------------------|
A|---------------------------------------------------------------------|
D|-0-3-7-3-0-7-4~------------------------------------------------------|

            
            
Suggest correction
Creating personal tab
Creating personal tab
You can edit any tab online and save it as your Personal.

You can edit, replace or remove any tab part or add personal notes – all changes will be seen only by you.

Personal tabs can be accessed anytime from any device, even offline.
Learn more »
comments
print report bad tab
3 comments total.
0 reply
!Mike! 432 Aug 30, 2013 10:48 AM

Only correction I have to point is

G|--------------------------------------------------------------------|
D|--------------------------------------------------------------------|
A|-----------------------------0h5h6----------------------------------|
D|-00000000(x2)-44444444-11111----------------------------------------|(x2)

should be

G|--------------------------------------------------------------------|
D|--------------------------------------------------------------------|
A|-----------------------------3h5h6----------------------------------|
D|-00000000(x2)-44444444-11111----------------------------------------|(x2)

other than that great tab!

guest
You may want to rate the tab now too:
select rating
Wanna post a correction for this tab? Suggest correction