Oops, an error
Loading. Please wait.

Planets bass

version 2
version 2

Whole song

233 views 1 this week
no commentswrite comment
1 2 3 4 5
3 more votes to show rating
add to favorites
×
Save as Personal and add changes to this tab that will be seen only by you. Learn more ›
×
You can save this tab as Personal to edit and correct it or add notes. All changes will be seen only by you. Learn more »
launch autoscroll
font size
0
reset
guitar tuner
edit
Autoscroll
slow
fast
+/-
esc
set tempo
stop
This tab was personally handed to me by my best friend Johnny Christ the bassist from 
Avenged Sevenfold. JOKING it's by ear but i think it sounds right so here you go

Tabbed by jake

Tuning:
G#-
D#-
A#-
C#-

Intro
G#-----------------------------------------|
D#-----------------------------------------|
A#-----------------------------------------|
C#-0---1---4---1-0  x3 (on third time no 0-| at the end)

Break/Guitar bit

G#---------------|
D#---------------|
A#---------------|
C#-0---1---4---1-|0  x1

Verse
G#-------------------------------------|
D#---------------------------------2---| x2
A#------------------------------2-3----|
C#-0-0000-00-0000-04-4444-1-1111-------|

G#-------------------------------------------------------------------|
D#-------------------------------------------------------------------|
A#-------------------------------------------------------------------|
C#-2-2222-2-222-1/5-2-2222-2-222-1/6-4-4444-4-444-3/7-4-4444-4-3-7-4-|

Pre Chrous - Mother of all...
G#------------------------------------------------------------------|
D#------------------------------------------------------------------|
A#------------------------------------------------------------------|
C#-0-----4-----5-----7-----0-----4-----5-----4321-------------------|

Chrous - When plaaaneeeeets coollliiiiiiiiiiide
G#-----------------------------------------------|
D#-----------------------------------------------|
A#-----------------------------------------------|  x2
C#-0--3--7--4--3-6---4-44-4321/4-----------------|

After Chorus
G#-----------------------|
D#-----------------------|
A#-----------------------|
C#-0-----4-----7------11-|

Verse
G#-------------------------------------|
D#---------------------------------2---| x2
A#------------------------------2-3----|
C#-0-0000-00-0000-04-4444-1-1111-------|

G#-------------------------------------------------------------------|
D#-------------------------------------------------------------------|
A#-------------------------------------------------------------------|
C#-2-2222-2-222-1/5-2-2222-2-222-1/6-4-4444-4-444-3/7-4-4444-4-3-7-4-|

Pre Chorus - Mother of all...
G#------------------------------------------------|
D#------------------------------------------------|
A#------------------------------------------------|
C#-0-----4-----5-----7-----0-----4-----5-----4321-|

Chrous - When plaaaneeeeets coollliiiiiiiiiiide
G#-----------------------------------------------|
D#-----------------------------------------------|
A#-----------------------------------------------|  x2
C#-0--3--7--4--3-6---4-44-4321/4-----------------|

Bridge
G#-----------------------------------------------------------|
D#-----------------------------------------------------------|
A#-----------------------------------------------------------|  x5
C#-000-00-000-00-444-44-444-44-555-55-555-55-555-55-555-55---|

 On the 6th time
G#----------------------------------------------------|
D#----------------------------------------------------|
A#----------------------------------------------------|
C#-000-00-000-00-444-44-444-44-555-55-555-55-55555555-|

Alternate Chrous
G#---------------------------     ---------|
D#---------------------------     ---------|
A#---------------------------  x3 ---------|
C#-0--3--7--4--(4321)--------     -000-444-|

Solo

G#----------------------------|
D#----------------------------|
A#----------------------------|  x4
C#-44444444-0--3--7--4--3-6---|

End of verse
G#-------------------------------------------------------------------|
D#-------------------------------------------------------------------|
A#-------------------------------------------------------------------|
C#-2-2222-2-222-1/5-2-2222-2-222-1/6-4-4444-4-444-3/7-4-4444-4-3-7-4-|

Pre Chorus - Mother of all...
G#------------------------------------------------|
D#------------------------------------------------|
A#------------------------------------------------|
C#-0-----4-----5-----7-----0-----4-----5-----4321-|

Chrous - When plaaaneeeeets coollliiiiiiiiiiide
G#-----------------------------------------------      ---------|
D#-----------------------------------------------      ---------|
A#-----------------------------------------------  x2  ---------|
C#-0--3--7--4--3-6---4-44-4321/4-----------------      -1111111-|

Repeat chorus till the end

Hope it was okay and right, you're welcome if it was useful :)

            
            
Suggest correction
Creating personal tab
Creating personal tab
You can edit any tab online and save it as your Personal.

You can edit, replace or remove any tab part or add personal notes – all changes will be seen only by you.

Personal tabs can be accessed anytime from any device, even offline.
Learn more »
Give kudos to tab author, rate the tab!
1 2 3 4 5
comments
print report bad tab
guest
You may want to rate the tab now too:
select rating
Wanna post a correction for this tab? Suggest correction