Oops, an error
Loading. Please wait.

Requiem bass

version 1
version 1

Whole song

Interactive

2,578 views 3 this week
no commentswrite comment
1 2 3 4 5
x 4
add to favorites
×
Save as Personal and add changes to this tab that will be seen only by you. Learn more ›
×
You can save this tab as Personal to edit and correct it or add notes. All changes will be seen only by you. Learn more »
launch autoscroll
font size
0
reset
guitar tuner
backing track
0:00
0:00
edit
Autoscroll
slow
fast
+/-
esc
set tempo
stop
0:10
F#|--------------------------------------------------|
C#|o-------------------------------------5-5-5-5-5-5-|
G#|o-------8-5-7-8-----------8-5-7-8-----------------|
C#|--0-----------------0-----------------------------|
     1 2 3 1 2 3 1 2 3 1 2 3 1 2 3 1 2 3 1 2 3 1 2 3 

F#|--------------------------------------------------|
C#|-------------------------------------8-8-8-8-8-8-o|
G#|-------8-5-7-8-----------8-5-7-8-----------------o|
C#|-0-----------------0------------------------------|
    1 2 3 1 2 3 1 2 3 1 2 3 1 2 3 1 2 3 1 2 3 1 2 3 

0:25 Verse
F#|--------------------------------------------------|
C#|o-------------------------------------------------|
G#|o-------------------------------------------1-1-1-|
C#|--0---0-0-0-0-0---0-0-0-0-0-----0-0-0-0---0-------|
     1 2 3 1 2 3 1 2 3 1 2 3 1 2 3 1 2 3 1 2 3 1 2 3 

F#|------------------------------------------------------------------|
C#|-----------------------------------------------------------------o|
G#|-----------------------------------------------------------------o|
C#|-0---0-0-0-0-0---0-0-0-0-0-----0-0-0-0---0-0-0-0-6-------3-3-3-3--|
    1 2 3 1 2 3 1 2 3 1 2 3 1 2 3 1 2 3 1 2 3 1 2 3 1 2 3 4 1 2 3 4

0:48 Pre Chours
F#|-----------------------------------------------------------------|
C#|-----------------------------------------------------------------|
G#|-----------------------------------------------------------------|
C#|-7-----6-5-----6-7-----5-8-----7-7-0-0---0-----2-2-3-0---0-------|
    1 + 2 + 3 + 4 + 1 + 2 + 3 + 4 + 1 + 2 + 3 + 4 + 1 + 2 + 3 + 4 +

F#|---------------------------------|
C#|---------------------------------|
G#|---------------------------------|
C#|-7-----6-5-----6-7-----5-8---7-6-|
    1 + 2 + 3 + 4 + 1 + 2 + 3 + 4 + 

Chorus 0:58
F#|-------------------------------------------------|
C#|-------------------------------------5-5-5-5-5-5-|
G#|-------8-5-7-8-----------8-5-7-8-----------------|
C#|-0-----------------0-----------------------------|
    1 2 3 1 2 3 1 2 3 1 2 3 1 2 3 1 2 3 1 2 3 1 2 3 

F#|-------------------------------------------------|
C#|-------------------------------------8-8-8-8-8-8-|
G#|-------8-5-7-8-----------8-5-7-8-----------------|
C#|-0-----------------0-----------------------------|
    1 2 3 1 2 3 1 2 3 1 2 3 1 2 3 1 2 3 1 2 3 1 2 3 

F#|-------------------------------------------------|
C#|-------------------------------------5-5-5-5-5-5-|
G#|-------8-5-7-8-----------8-5-7-8-----------------|
C#|-0-----------------0-----------------------------|
    1 2 3 1 2 3 1 2 3 1 2 3 1 2 3 1 2 3 1 2 3 1 2 3 

F#|-------------------------------------------------|
C#|-------------------------------------------------|
G#|-------------------------------------------------|
C#|-0-----------------------------------------------|
    1 2 3 1 2 3 1 2 3 1 2 3 1 2 3 1 2 3 1 2 3 1 2 3 

1:11 Verse
F#|--------------------------------------------------|
C#|o-------------------------------------------------|
G#|o-------------------------------------------1-1-1-|
C#|--0---0-0-0-0-0---0-0-0-0-0-----0-0-0-0---0-------|
     1 2 3 1 2 3 1 2 3 1 2 3 1 2 3 1 2 3 1 2 3 1 2 3 

F#|------------------------------------------------------------------|
C#|-----------------------------------------------------------------o|
G#|-----------------------------------------------------------------o|
C#|-0---0-0-0-0-0---0-0-0-0-0-----0-0-0-0---0-0-0-0-6-------3-3-3-3--|
    1 2 3 1 2 3 1 2 3 1 2 3 1 2 3 1 2 3 1 2 3 1 2 3 1 2 3 4 1 2 3 4

Pre Chorus 1:35
F#|-----------------------------------------------------------------|
C#|-----------------------------------------------------------------|
G#|-----------------------------------------------------------------|
C#|-7-----6-5-----6-7-----5-8-----7-7-0-0---0-----2-2-3-0---0-------|
    1 + 2 + 3 + 4 + 1 + 2 + 3 + 4 + 1 + 2 + 3 + 4 + 1 + 2 + 3 + 4 +

F#|---------------------------------|
C#|---------------------------------|
G#|---------------------------------|
C#|-7-----6-5-----6-7-----5-8---7-6-|
    1 + 2 + 3 + 4 + 1 + 2 + 3 + 4 + 

Chorus 1:45
F#|-------------------------------------------------|
C#|-------------------------------------5-5-5-5-5-5-|
G#|-------8-5-7-8-----------8-5-7-8-----------------|
C#|-0-----------------0-----------------------------|
    1 2 3 1 2 3 1 2 3 1 2 3 1 2 3 1 2 3 1 2 3 1 2 3 

F#|-------------------------------------------------|
C#|-------------------------------------8-8-8-8-8-8-|
G#|-------8-5-7-8-----------8-5-7-8-----------------|
C#|-0-----------------0-----------------------------|
    1 2 3 1 2 3 1 2 3 1 2 3 1 2 3 1 2 3 1 2 3 1 2 3 

F#|-------------------------------------------------|
C#|-------------------------------------5-5-5-5-5-5-|
G#|-------8-5-7-8-----------8-5-7-8-----------------|
C#|-0-----------------0-----------------------------|
    1 2 3 1 2 3 1 2 3 1 2 3 1 2 3 1 2 3 1 2 3 1 2 3 

F#|-------------------------------------------------|
C#|-------------------------------------------------|
G#|-------------------------------------------------|
C#|-0-----------------------------------------------|
    1 2 3 1 2 3 1 2 3 1 2 3 1 2 3 1 2 3 1 2 3 1 2 3 

Solo 1:59
F#|--------------------------------------------------|
C#|o-------------------------------------------------|
G#|o-------------------------------------------1-1-1-|
C#|--0---0-0-0-0-0---0-0-0-0-0-----0-0-0-0---0-------|
     1 2 3 1 2 3 1 2 3 1 2 3 1 2 3 1 2 3 1 2 3 1 2 3 

F#|------------------------------------------------------------------|
C#|-----------------------------------------------------------------o|
G#|-----------------------------------------------------------------o|
C#|-0---0-0-0-0-0---0-0-0-0-0-----0-0-0-0---0-0-0-0-6-------3-3-3-3--|
    1 2 3 1 2 3 1 2 3 1 2 3 1 2 3 1 2 3 1 2 3 1 2 3 1 2 3 4 1 2 3 4

2:22
F#|-----------------------------------------------------------------|
C#|-----------------------------------------------------------------|
G#|-----------------------------------------------------------------|
C#|-7-----6-5-----6-7-----5-8-----7-7-0-0---0-----2-2-3-0---0-------|
    1 + 2 + 3 + 4 + 1 + 2 + 3 + 4 + 1 + 2 + 3 + 4 + 1 + 2 + 3 + 4 +

F#|-----------------------------------------------------------------|
C#|-----------------------------------------------------------------|
G#|-----------------------------------------------------------------|
C#|-7-----6-5-----6-7-----5-8---7-6-6-0-0---------2-2-3-0-----------|
    1 + 2 + 3 + 4 + 1 + 2 + 3 + 4 + 1 + 2 + 3 + 4 + 1 + 2 + 3 + 4 +

2:35 Bridge
F#|------------------------------------------------------------------|
C#|o-----------------------------------------------------------------|
G#|o-----------------------------------------------------------------|
C#|--8---------------8-------7-------6-------------------------------|
     1 + 2 + 3 + 4 + 1 + 2 + 3 + 4 + 1 + 2 + 3 + 4 + 1 + 2 + 3 + 4 +

F#|------------------------------------------------------------------|
C#|-----------------------------------------------------------------o|
G#|-----------------------------------------------------------------o|
C#|-7---------------7---------------0---------------2-------3--------|
    1 + 2 + 3 + 4 + 1 + 2 + 3 + 4 + 1 + 2 + 3 + 4 + 1 + 2 + 3 + 4 +

F#|-----------------------------------------------------------------|
C#|-----------------------------------------------------------------|
G#|-----------------------------------------------------------------|
C#|-5---------------5-------3-------1-------------------------------|
    1 + 2 + 3 + 4 + 1 + 2 + 3 + 4 + 1 + 2 + 3 + 4 + 1 + 2 + 3 + 4 +

F#|-----------------------------------------------------------------|
C#|-----------------------------------------------7-7-7-7-7-7-7-7-7-|
G#|---------------------------------3-3-3-3-7-7-7-------------------|
C#|-7---------------7-----------------------------------------------|
    1 + 2 + 3 + 4 + 1 + 2 + 3 + 4 + 1 + 2 + 3 + 4 + 1 + 2 + 3 + 4 +

3:17
F#|-------------------------------------------------------|
C#|-------------------------------------------5-5-5-5-----|
G#|--------8-8-8-8-----------7-7-7-7----------------------|
C#|-0-----------------0-----------------0-----------------|
    1 2 3 1 2 3 1 2 3 1 2 3 1 2 3 1 2 3 1 2 3 1 2 3 1 2 3 

F#|-------------------------------------------------------|
C#|--------------------------7-7-7-8----------------5-----|
G#|-------8-8-8-8-----------------------------7-7-7-------|
C#|-0-----------------0-----------------0-----------------|
    1 2 3 1 2 3 1 2 3 1 2 3 1 2 3 1 2 3 1 2 3 1 2 3 1 2 3

F#|---------------------------------------------------------------------|
C#|---------------------------------------------------------------------|
G#|-------8-8-8-7-----5-----7-7-7-5-------------------------------------|
C#|-0-----------------------------------6-------------------------------|
    1 2 3 1 2 3 1 2 3 1 2 3 1 2 3 1 2 3 1 + 2 + 3 + 4 + 1 + 2 + 3 + 4 +

3:30 Verse
F#|-------------------------------------------------|
C#|-------------------------------------------------|
G#|-------------------------------------------1-1-1-|
C#|-0---0-0-0-0-0---0-0-0-0-0-----0-0-0-0---0-------|
    1 2 3 1 2 3 1 2 3 1 2 3 1 2 3 1 2 3 1 2 3 1 2 3 

F#|-----------------------------------------------------------------|
C#|-----------------------------------------------------------------|
G#|-----------------------------------------------------------------|
C#|-0---0-0-0-0-0---0-0-0-0-0-----0-0-0-0---0-0-0-0-6-------3-3-3-3-|
    1 2 3 1 2 3 1 2 3 1 2 3 1 2 3 1 2 3 1 2 3 1 2 3 1 2 3 4 1 2 3 4

F#|-------------------------------------------------|
C#|-------------------------------------------------|
G#|-------------------------------------------1-1-1-|
C#|-0---0---0-0-0---0-0-0-0-0-----0-0-0-0---0-------|
    1 2 3 1 2 3 1 2 3 1 2 3 1 2 3 1 2 3 1 2 3 1 2 3 

F#|-----------------------------------------------------------------|
C#|-----------------------------------------------------------------|
G#|-----------------------------------------------------------------|
C#|-0---0---0-0-0---0-0-0-0-0-----0-0-0-0---0-0-0-0-6-------3-3-3-3-|
    1 2 3 1 2 3 1 2 3 1 2 3 1 2 3 1 2 3 1 2 3 1 2 3 1 2 3 4 1 2 3 4

3:53 Pre Chorus 
F#|-----------------------------------------------------------------|
C#|-----------------------------------------------------------------|
G#|-----------------------------------------------------------------|
C#|-7-----6-5-----6-7-----5-8-----7-7-0-0---------2-2-3-0-----------|
    1 + 2 + 3 + 4 + 1 + 2 + 3 + 4 + 1 + 2 + 3 + 4 + 1 + 2 + 3 + 4 +

F#|---------------------------------|
C#|---------------------------------|
G#|---------------------------------|
C#|-7-----6-5-----6-7-----5-8---7-6-|
    1 + 2 + 3 + 4 + 1 + 2 + 3 + 4 + 

Chorus
F#|-------------------------------------------------|
C#|-------------------------------------5-5-5-5-5-5-|
G#|-------8-5-7-8-----------8-5-7-8-----------------|
C#|-0-----------------0-----------------------------|
    1 2 3 1 2 3 1 2 3 1 2 3 1 2 3 1 2 3 1 2 3 1 2 3 

F#|-------------------------------------------------|
C#|-------------------------------------8-8-8-8-8-8-|
G#|-------8-5-7-8-----------8-5-7-8-----------------|
C#|-0-----------------0-----------------------------|
    1 2 3 1 2 3 1 2 3 1 2 3 1 2 3 1 2 3 1 2 3 1 2 3 

F#|-------------------------------------------------|
C#|-------------------------------------5-5-5-5-5-5-|
G#|-------8-5-7-8-----------8-5-7-8-----------------|
C#|-0-----------------0-----------------------------|
    1 2 3 1 2 3 1 2 3 1 2 3 1 2 3 1 2 3 1 2 3 1 2 3 

F#|-------------------------------------------------|
C#|-------------------------------------------------|
G#|-------------------------------------------------|
C#|-0-----------------------------------------------|
    1 2 3 1 2 3 1 2 3 1 2 3 1 2 3 1 2 3 1 2 3 1 2 3 
Tabbed by Dave Vucko
Suggest correction
Creating personal tab
Creating personal tab
You can edit any tab online and save it as your Personal.

You can edit, replace or remove any tab part or add personal notes – all changes will be seen only by you.

Personal tabs can be accessed anytime from any device, even offline.
Learn more »
comments
print report bad tab
guest
You may want to rate the tab now too:
select rating
Wanna post a correction for this tab? Suggest correction