Oops, an error
Loading. Please wait.

Roman Sky Bass Tab

version 1
version 1

Whole song

Interactive

115 views 18 this week
no commentswrite comment
1 2 3 4 5
2 more votes to show rating
add to favorites
launch autoscroll
font size
0
reset
guitar tuner
Autoscroll
slow
fast
+/-
esc
set tempo
stop
Help us to improve Ultimate-Guitar.com Take our survey!
×
Author
Difficulty
Tuning
novice
D A D G B E
3:12
G|-----------------------------------------------------------------|
D|---------7-------------------------------------------------------|
A|-0-----0-------0-0---0-----0-0-----------------------------------|
D|---------------------------------5-----5-5-----5-5---5-----5-2-5-|
   1 + 2 + 3 + 4 + 1 + 2 + 3 + 4 + 1 + 2 + 3 + 4 + 1 + 2 + 3 + 4 +

G|-----------------------------------------------------------------|
D|---------------------------------2-----2-------2-2---2---2-3-2-0-|
A|-3-----3-3-----3-3---3-----3-3-5---------------------------------|
D|-----------------------------------------------------------------|
   1 + 2 + 3 + 4 + 1 + 2 + 3 + 4 + 1 + 2 + 3 + 4 + 1 + 2 + 3 + 4 +

3:26
G|-----------------------------------------------------------------|
D|---------7-------------------------------------------------------|
A|-0-----0-------0-0---0---0---------------------------------------|
D|---------------------------2-5-2-5-----5-5-----5-5---5---5-5-2-5-|
   1 + 2 + 3 + 4 + 1 + 2 + 3 + 4 + 1 + 2 + 3 + 4 + 1 + 2 + 3 + 4 +

G|-----------------------------------------------------------------|
D|---------------------------------2-----2-2-2-----2-2-2-2-2-3-2-0-|
A|-3---3---3-----3-3-5-3---3---3-5---------------------------------|
D|-----------------------------------------------------------------|
   1 + 2 + 3 + 4 + 1 + 2 + 3 + 4 + 1 + 2 + 3 + 4 + 1 + 2 + 3 + 4 +

3:41
G|---------------------------------|
D|---------------------------------|
A|-0---------------0---0---4-4-4-4-|
D|---------------------------------|
   1 + 2 + 3 + 4 + 1 + 2 + 3 + 4 + 

3:45
G|-----------------------------------------------------------------|
D|-----------------------------------------------------------------|
A|-5-----5-5-------3-------3-5-3-0-----------------0---0-0-4-4-4-4-|
D|---------------------------------3-------3---3-3-----------------|
   1 + 2 + 3 + 4 + 1 + 2 + 3 + 4 + 1 + 2 + 3 + 4 + 1 + 2 + 3 + 4 +

G|---------7-------------------------------------------------------|
D|-------7---7-----------------------------------------------------|
A|-5---5-------8-7-3---3-3-3-5-3-0-----------------0-0-0-0-4-4-4-4-|
D|---------------------------------3-----3-3---3-3-----------------|
   1 + 2 + 3 + 4 + 1 + 2 + 3 + 4 + 1 + 2 + 3 + 4 + 1 + 2 + 3 + 4 +

G|-------3-3---3-3-----------------|
D|---------------------------------|
A|-1---------------1---1---4-4-4-4-|
D|---------------------------------|
   1 + 2 + 3 + 4 + 1 + 2 + 3 + 4 + 

Solo 4:03
G|-----------------------------------------------------------------|
D|-----------------------------------------------------------------|
A|-5---5---5-5---------------------5---5---5---7h8-----------------|
D|-----------------8---8-8-8---8-8-----------------8---8-8-8---8-8-|
   1 + 2 + 3 + 4 + 1 + 2 + 3 + 4 + 1 + 2 + 3 + 4 + 1 + 2 + 3 + 4 +

G|-------------------------------------------------------------------|
D|---------------------------------------------8h10-11---------------|
A|-8---8---8-8-8-8-4---4-4-4---4-4-8-----8-8-------------------------|
D|-------------------------------------------------------------------|
   1 + 2 + 3 + 4 + 1 + 2 + 3 + 4 + 1 + 2 + 3 + 4 +  1  + 2 + 3 + 4 +

4:18
G|-----------------------------------------------------------------|
D|-6---6-----6-6-6-------------------------------------------------|
A|-----------------3---3-3-3---3---4---4-4-4---4-4-3---3---4---4-4-|
D|-----------------------------------------------------------------|
   1 + 2 + 3 + 4 + 1 + 2 + 3 + 4 + 1 + 2 + 3 + 4 + 1 + 2 + 3 + 4 +

G|-----------------------------------------------------------------|
D|-----------------------------------------------------------------|
A|-1---1-----1-1---------------------------------------------------|
D|-----------------6-------6---6---4-----4-4---4-4-3-----------3---|
   1 + 2 + 3 + 4 + 1 + 2 + 3 + 4 + 1 + 2 + 3 + 4 + 1 + 2 + 3 + 4 +

4:33
G|-----------------------------------------------------------------|
D|-----------------------------------------------------------------|
A|-------------------------------------------------4-----------4-6-|
D|-2---2---2-2-0-2-3-------3-3-3-3-4-----------4-------------------|
   1 + 2 + 3 + 4 + 1 + 2 + 3 + 4 + 1 + 2 + 3 + 4 + 1 + 2 + 3 + 4 +

G|-------------------------------------------------6-6-------------|
D|-3---3-----3-3-3-----------------3---3-3-3-3-3/6-----------------|
A|-----------------4---4-4-4---4-4---------------------------------|
D|-----------------------------------------------------------------|
   1 + 2 + 3 + 4 + 1 + 2 + 3 + 4 + 1 + 2 + 3 + 4 + 1 + 2 + 3 + 4 +

G|-----------------------------------------------------------------|
D|-6-----6-6---6-6-------------------------------------------------|
A|-----------------3-3-3-3-3-3-3-3-4-------------------------------|
D|-----------------------------------------------------------------|
   1 + 2 + 3 + 4 + 1 + 2 + 3 + 4 + 1 + 2 + 3 + 4 + 1 + 2 + 3 + 4 +
Tabbed by Dave Vucko
Suggest correction
Give kudos to tab author, rate the tab!
1 2 3 4 5
comments
print report bad tab
guest
You may want to rate the tab now too:
select rating
Wanna post a correction for this tab? Suggest correction