Oops, an error
Loading. Please wait.

Roman Sky Chords

version 1
version 1

Whole song

  • Contains strumming and picking patterns, along wit... Show more

Interactive

7,840 views 153 this week
1 commentread comment
1 2 3 4 5
x 15
add to favorites
launch autoscroll
font size
0
reset
transpose
0
reset
simplify chords
display chords
guitar tuner
Autoscroll
slow
fast
+/-
esc
set tempo
stop
Help us to improve Ultimate-Guitar.com Take our survey!
×
Artist: Avenged Sevenfold
Song: Roman Sky

[Chords]

Asus2:   x02200
Asus2/G: 302200

[Intro]

     Dm             C                Bb                          
e|---1-------1------0--1-1-0-------------------------------------------------|
B|---3---1h3---3----1--------1--1-3--3---------------------------------------|
G|---2--------------0-----------2-3--3---3-3-2-2-0-0-------------------------|
D|---0--------------2----------------3---------------3-3--2---0--------------|     x4
A|------------------3----------------1---------------------------------------|
E|---------------------------------------------------------------------------|


[Verse]

Asus2            Asus2/G                C   Em
   As the embers rose through the Roman sky
Asus2               Asus2/G                  C     Em  A
   Tell me were you calm when they took your life?


[Chorus]

A               Dm  C               F
Just before you go, tell us how the heavens flow
A              Dm    C              F
Weightless evermore, as you walk beyond that door
A             Bb
Shine forever true


[Interlude]

     Dm             C                Bb                          
e|---1-------1------0--1-1-0-------------------------------------------------|
B|---3---1h3---3----1--------1--1-3--3---------------------------------------|
G|---2--------------0-----------2-3--3---3-3-2-2-0-0-------------------------|
D|---0--------------2----------------3---------------3-3--2---0--------------|     x2
A|------------------3----------------1---------------------------------------|
E|---------------------------------------------------------------------------|


[Verse]

Asus2                 Asus2/G                C     Em
   Shared with us the world well before your time
Asus2                    Asus2/G             C     Em  A
   Though they took your voice words forever shine


[Chorus]

A               Dm  C               F
Just before you go, tell us how the heavens flow
A              Dm    C              F
Weightless evermore, as you walk beyond that door
A             Bb
Shine forever true


[Interlude]

| Dm | C | Bb | Bb|   x6


[Verse]

Asus2                 Asus/G                 C    Em
   As they spoke your fate a fearless man replied
Asus2                    Asus/G                  C     Em  A
   "As you will sentence me, your fear is beyond mine"


[Chorus]

A               Dm  C               F
Just before you go, tell us how the heavens flow
A              Dm    C              F
Weightless evermore, as you walk beyond that door
A             Bb
Shine forever true
Suggest correction
comments
print report bad tab
1 comment total.
+1 reply
alaskan6string 10 Dec 25, 2016 06:18 AM

awesome dude

guest
You may want to rate the tab now too:
select rating
Wanna post a correction for this tab? Suggest correction