Oops, an error
Loading. Please wait.

Roman Sky Tab

version 1
version 1

Intro

  • Intro of this sweet song. the rest coming up soon.
  • Avoids the harsher sounds of the higher E and B st... Show more

Whole song

Interactive

2,122 views 96 this week
no commentswrite comment
1 2 3 4 5
x 3
add to favorites
launch autoscroll
font size
0
reset
how to read this tab
guitar tuner
Autoscroll
slow
fast
+/-
esc
set tempo
stop
Help us to improve Ultimate-Guitar.com Take our survey!
×
Author
Difficulty
novice
Artist : Avenged Sevenfold
Song : Roman Sky

Hi guys, this is my first tab I have posted on here, I know this tab isn't as
accurate as it could be so any additions or alterations would be appreciated!


e|--------------------------------------------------------------------------------|   (x3)
B|---------------------6-6-4------------------------------------------------------|
G|-----5h6h7-5--------------5---2-------------------------------------------------|
D|----------------5-------------2--3-3--------------------------------------------|
A|--0-------------3-------------0--1-1-1-1-0-0------------------------------------|
E|---------------------------------------------5-3-3-2-2--------------------------|

e|--------------------------------------0----------0------------------------------|
B|---------------------6-6-4------------1--------1---1----------------------------|
G|-----5h6h7-5--------------5---2-------2------2--------2-------------------------|
D|----------------5-------------2--3-3--2----2------------2-----------------------|
A|---0------------3-------------0--1-1--0--0----------------2---------------------|
E|--------------------------------------0-----------------------------------------|


************************************
| h   Hammer-on
************************************
Suggest correction
Give kudos to tab author, rate the tab!
1 2 3 4 5
comments
print report bad tab
guest
You may want to rate the tab now too:
select rating
Wanna post a correction for this tab? Suggest correction