Oops, an error
Loading. Please wait.

Roman Sky Tab

version 2
version 2

Intro

  • Intro of this sweet song. the rest coming up soon.
  • Avoids the harsher sounds of the higher E and B st... Show more

Whole song

Interactive

1,924 views 36 this week
no commentswrite comment
1 2 3 4 5
x 4
add to favorites
launch autoscroll
font size
0
reset
how to read this tab
guitar tuner
Autoscroll
slow
fast
+/-
esc
set tempo
stop
Help us to improve Ultimate-Guitar.com Take our survey!
×
Author
Difficulty
Tuning
advanced
D A D G B E
About this tab version
Intro of this sweet song. the rest coming up soon. Was this info helpful? Yes No
https://www.youtube.com/watch?v=eWUVT8saikE

[Intro Riff]

e|----------1-------0----1-1-0-------0---5--5--------------------------------|
B|------1h3---3-----1----------1-----1---3--3--------------------------------|
G|------2-----------0----------------0---3--3--------------------------------| x 3 times
D|-----(0)----------2----------------3---3--3------0-0-0-0-0-0-0-0-----------|
A|------------------3------------------------------8-8-7-7-5-5-3-3-----------|
D|--0----------------------------------------------8-8-7-7-5-5-3-3-2---------|

e|----------1-------0----1-1-0-------0---5--5--------------------------------|
B|------1h3---3-----1----------1-----5---3--3--------------------------------|
G|------2-----------0----------------5---3--3--------------------------------| 
D|-----(0)----------2----------------5---3--3--------------------------------|
A|------------------3--------------------------------------------------------|
D|--0------------------------------------------------------------------------|


 
[Verse]

e|------0--------0----------------0-----------------0-----------------0------|
B|-----0---0---0---0------------0---0-----------0-----0-----------0-----0----|
G|----2------2-------2----2---2-------2----4--4---4-----4----4--4---4-----4/5|
D|---2-----------------2--2-2----------2---0--------------0--0---------------|
A|--0---------------------0----------------7-----------------7---------------|
D|-----------------------------------------5-----------------5---------------|

e|-------------------------------0--0---0--0--0-0----------------------------|
B|--1----1-------1-3-1---1-------0--0---0--0--0-0----------------------------|
G|--0----0-------0-0-0---0-------0--0---0--0--0-0----------------------------|
D|--2----2-------2-2-2---2-------2--2---2--2--2-2----------------------------|
A|--3----3-------3-3-3---3-------2--2---2--2--2-2----------------------------|
D|---------------------------------------------------------------------------|

e|------0--------0----------------0-----------------0-----------------0------|
B|-----0---0---0---0------------0---0-----------0-----0-----------0-----0----|
G|----2------2-------2----2---2-------2----4--4---4-----4----4--4---4-----4/5|
D|---2-----------------2--2-2----------2---0--------------0--0---------------|
A|--0---------------------0----------------7-----------------7---------------|
D|-----------------------------------------5-----------------5---------------|

e|-------------------------------0--0---0--0--0-0----------------------------|
B|--1----1---3---1-3-1---1-------0--0---0--0--0-0----------------------------|
G|--0----0---0---0-0-0---0-------0--0---0--0--0-0----------------------------|
D|--2----2---2---2-2-2---2-------2--2---2--2--2-2----------------------------|
A|--3----3---3---3-3-3---3-------2--2---2--2--2-2----------------------------|
D|---------------------------------------------------------------------------|

[Prechorus]

e|---------------------------------------------------------------------------|
B|-------------------------------2----------5--------------------------------|
G|-----------------------------2----------6----------------------------------|
D|--2----8-7h8p7p5--------2--2----------7------------------------------------|
A|--0--------------8p7----0-----------4--------------------------------------|
D|---------------------------------------------------------------------------|


[Chorus]

e|-----------------------------------------1---------------------------------|
B|---------6-----------3---5-3---------------1-----------2-------5-----------|
G|-----7-----7---------5-------5-------0h2-----0-------2-------6-------------|
D|---7---7-----7-----5---5-------5---3-----------3---2-------7---------------|
A|-5-------------5-3-------------------------------0-------4-----------------|
D|---------------------------------3-----------------------------------------|

e|-----------------------------------------1---------------0-----------------|
B|---------6-----------3---5-3---------------1-----------2---2---------------|
G|-----7-----7---------5-------5-------0h2-----0-------0-------0-------------|
D|---7---7-----7-----5---5-------5---3-----------3---2-----------2-----------|
A|-5-------------5-3-------------------------------0-------------------------|
D|---------------------------------3-----------------------------------------|

e|---------------------------------------------------------------------------|
B|---------3--------------3-------5------------------------------------------|
G|-----3-----3----------3-------6--------------------------------------------|
D|---3---3-----3------3-------7----------------------------------------------|
A|-1-------------1--1-------4------------------------------------------------|
D|---------------------------------------------------------------------------|

[Intro Riff]

e|----------1-------0----1-1-0-------0---5--5--------------------------------|
B|------1h3---3-----1----------1-----1---3--3--------------------------------|
G|------2-----------0----------------0---3--3--------------------------------| 
D|-----(0)----------2----------------3---3--3------0-0-0-0-0-0-0-0-----------|
A|------------------3------------------------------8-8-7-7-5-5-3-3-----------|
D|--0----------------------------------------------8-8-7-7-5-5-3-3-2---------|

e|----------1-------0----1-1-0-------0---5--5--------------------------------|
B|------1h3---3-----1----------1-----5---3--3--------------------------------|
G|------2-----------0----------------5---3--3--------------------------------| 
D|-----(0)----------2----------------5---3--3--------------------------------|
A|------------------3--------------------------------------------------------|
D|--0------------------------------------------------------------------------|

[Verse]

e|------0--------0----------------0-----------------0-----------------0------|
B|-----0---0---0---0------------0---0-----------0-----0-----------0-----0----|
G|----2------2-------2----2---2-------2----4--4---4-----4----4--4---4-----4/5|
D|---2-----------------2--2-2----------2---0--------------0--0---------------|
A|--0---------------------0----------------7-----------------7---------------|
D|-----------------------------------------5-----------------5---------------|

e|-------------------------------0--0---0--0--0-0----------------------------|
B|--1----1-------1-3-1---1-------0--0---0--0--0-0----------------------------|
G|--0----0-------0-0-0---0-------0--0---0--0--0-0----------------------------|
D|--2----2-------2-2-2---2-------2--2---2--2--2-2----------------------------|
A|--3----3-------3-3-3---3-------2--2---2--2--2-2----------------------------|
D|---------------------------------------------------------------------------|

e|------0--------0----------------0-----------------0-----------------0------|
B|-----0---0---0---0------------0---0-----------0-----0-----------0-----0----|
G|----2------2-------2----2---2-------2----4--4---4-----4----4--4---4-----4/5|
D|---2-----------------2--2-2----------2---0--------------0--0---------------|
A|--0---------------------0----------------7-----------------7---------------|
D|-----------------------------------------5-----------------5---------------|

e|-------------------------------0--0---0--0--0-0----------------------------|
B|--1----1---3---1-3-1---1-------0--0---0--0--0-0----------------------------|
G|--0----0---0---0-0-0---0-------0--0---0--0--0-0----------------------------|
D|--2----2---2---2-2-2---2-------2--2---2--2--2-2----------------------------|
A|--3----3---3---3-3-3---3-------2--2---2--2--2-2----------------------------|
D|---------------------------------------------------------------------------|

[Prechorus]

e|---------------------------------------------------------------------------|
B|-------------------------------2----------5--------------------------------|
G|-----------------------------2----------6----------------------------------|
D|--2----8-7h8p7p5--------2--2----------7------------------------------------|
A|--0--------------8p7----0-----------4--------------------------------------|
D|---------------------------------------------------------------------------|

[Chorus]

e|-----------------------------------------1---------------------------------|
B|---------6-----------3---5-3---------------1-----------2-------5-----------|
G|-----7-----7---------5-------5-------0h2-----0-------2-------6-------------|
D|---7---7-----7-----5---5-------5---3-----------3---2-------7---------------|
A|-5-------------5-3-------------------------------0-------4-----------------|
D|---------------------------------3-----------------------------------------|

e|-----------------------------------------1---------------0-----------------|
B|---------6-----------3---5-3---------------1-----------2---2---------------|
G|-----7-----7---------5-------5-------0h2-----0-------0-------0-------------|
D|---7---7-----7-----5---5-------5---3-----------3---2-----------2-----------|
A|-5-------------5-3-------------------------------0-------------------------|
D|---------------------------------3-----------------------------------------|

e|---------------------------------------------------------------------------|
B|---------3--------------3-------5------------------------------------------|
G|-----3-----3----------3-------6--------------------------------------------|
D|---3---3-----3------3-------7----------------------------------------------|
A|-1-------------1--1-------4------------------------------------------------|
D|---------------------------------------------------------------------------|

[Intro Riff]

e|----------1-------0----1-1-0-------0---------------------------------------|
B|------1h3---3-----1----------1-----1---3--3--------------------------------|
G|------2-----------0----------------0---3--3--------------------------------| x 4 times
D|-----(0)----------2----------------3---3--3------0-0-0-0-0-0-0-0-----------|
A|------------------3--------------------1--1------8-8-7-7-5-5-3-3-----------|
D|--0----------------------------------------------8-8-7-7-5-5-3-3-2---------|


[Lead Guitar]

e|-------10----10---8----8----8--10-10---------------------------------------|
B|---------------------------------------------------------------------------|
G|--5/10----10------9-----9---9--10-10---------------------------------------|
D|---------------------------------------------------------------------------|
A|---------------------------------------------------------------------------|
D|---------------------------------------------------------------------------|

e|-------13----13--13---15--12--12-10-12-13--12s10-10-10---------------------|
B|-------------------------------------------x-sx--x--x------10pbr8p6--------|
G|--5/14----14--------------12---------------12s10-10-10---------------------|
D|---------------------------------------------------------------------------|
A|---------------------------------------------------------------------------|
D|---------------------------------------------------------------------------|

e|---------------------------------------------------------------------------|
B|--5h6-6-6-6-8-5h6-6-6-6-8---5\3--3-3---------------------------------------|
G|--7-----------7---7----------------------------------------------5-5b------|
D|----------------------------5\3--3-3------------------------5/7------------|
A|---------------------------------------------------------------------------|
D|---------------------------------------------------------------------------|


e|------10-10---10--------12----12--------13----13-------17-17----17----17---|
B|---------------------------------------------------------------------------|
G|-7/10------10-----10/12----12-----12/14----14----14/17-------17----17----17|
D|---------------------------------------------------------------------------|
A|---------------------------------------------------------------------------|
D|---------------------------------------------------------------------------|

 
************************************

| x   Dead note
| g   Grace note
| (n) Ghost note
| h   Hammer-on
| p   Pull-off
| r   Release
| >   Accented note
| t   Tapping
| b   Bend
| br  Bend release
| pb  Pre-bend
| pbr Pre-bend release
| /   Slide up
| \   Slide down
| ~   Vibrato
| s   Slap
| P   Pop
| PM  Palm mute
| TR  Trill
| N   Tremolo

************************************
Suggest correction
comments
print report bad tab
guest
You may want to rate the tab now too:
select rating
Wanna post a correction for this tab? Suggest correction