Oops, an error
Loading. Please wait.

Roman Sky Tab

version 1
version 1

Solo

  • The sweaping parts may have been simplified.
  • A more simplified version. right on.

Whole song

Interactive

1,084 views 60 this week
no commentswrite comment
1 2 3 4 5
2 more votes to show rating
add to favorites
launch autoscroll
font size
0
reset
how to read this tab
guitar tuner
Autoscroll
slow
fast
+/-
esc
set tempo
stop
Help us to improve Ultimate-Guitar.com Take our survey!
×
Author
Difficulty
intermediate
This is the clean solo that comes in at around 2:26; in my opinion, the best part of The Stage. It sounds
like it might be hybrid picked, but I'm not sure. I'm not good at hybrid picking either way... hell, this is 
one of the few solos I can even play by them. 


e|------10---10--8-----8---10-10----------13----13----13/15---12-----12\10/12-13---12\10--10-10--------------|
B|---------------10~---10--10-10~----------------------------------------------------------------------------|
G|--/7----7------9-----9---9--9------5/10----10----10---------12--12---------------12\10--10-10---12br10-----|
D|-----------------------------------------------------------------------------------------------------------|
A|-----------------------------------------------------------------------------------------------------------|
E|-----------------------------------------------------------------------------------------------------------|


e|------------------------------------------------------------------10-----10---------12------12-------13--13|
B|-----------------------------------------------------------------------------------------------------------|
G|--9h10-10-10-10-12--9h10-10-10-10-12--9\-7--7-7~------5-5~-------------------10/12------12------12/14--14--|
D|--12----------------10----------------10\8--8-8~--6h7-------10/12----12------------------------------------|
A|-----------------------------------------------------------------------------------------------------------|
E|-----------------------------------------------------------------------------------------------------------|


e|---------17---17----17-------------------------------------------------------------------------------------|
B|-----------------------------------------------------------------------------------------------------------|
G|--14/17----17----17----17~---------------------------------------------------------------------------------|
D|-----------------------------------------------------------------------------------------------------------|
A|-----------------------------------------------------------------------------------------------------------|
E|-----------------------------------------------------------------------------------------------------------|



************************************

| h   Hammer-on
| br  Bend release
| /   Slide up
| \   Slide down
| ~   Vibrato

************************************
Suggest correction
Give kudos to tab author, rate the tab!
1 2 3 4 5
comments
print report bad tab
guest
You may want to rate the tab now too:
select rating
Wanna post a correction for this tab? Suggest correction