Oops, an error
Loading. Please wait.

Roman Sky Tab

version 2
version 2

Solo

  • The sweaping parts may have been simplified.
  • A more simplified version. right on.

Whole song

Interactive

298 views 9 this week
no commentswrite comment
1 2 3 4 5
2 more votes to show rating
add to favorites
launch autoscroll
font size
0
reset
how to read this tab
guitar tuner
Autoscroll
slow
fast
+/-
esc
set tempo
stop
Help us to improve Ultimate-Guitar.com Take our survey!
×
Author
Difficulty
intermediate
Avenged Sevenfold – Roman Sky (Solo)

Author: Eduardo Mollo
Email: endsoftitalia@gmail.com
Tuning: Standard Tuning
Capo: No Capo

e|--------------------------------------------------------------------------------------|
B|--------------------------------------------------------------------------------------|
G|---17b18p14-17b18p14-16b17p15-14--15-14-----------------------------------------------|
D|----------------------------------------15-11----10-10h11p10s8-7----s15---------------|
A|--------------------------------------------------------------------------------------|
E|--------------------------------------------------------------------------------------|

e|--------------------------------------------------------------------------------------|
B|----------------s11-11p9-9—9h11h13s14-14p13p11s9--11-9-11b12-12p11p9------------------|
G|---s12-12p10-10------------------------------------------------------8-8h9---s10------|
D|--------------------------------------------------------------------------------------|
A|--------------------------------------------------------------------------------------|
E|--------------------------------------------------------------------------------------|

e|--------------------------------------------------------------------------------------|
B|---s13-s11-9-9---11h13-s11-9-9---11h13-13h14-13p11---------------------9-9p6-6--------|
G|---------------------------------------------------10---8-10-8-s8-6-6-----------------|
D|--------------------------------------------------------------------------------------|
A|--------------------------------------------------------------------------------------|
E|--------------------------------------------------------------------------------------|

e|-------15-15h16-s15-13---13-----------------------------------------------------------|
B|---s17----------------13----14--18-19-21b22-21p19p18--18-18p16-14h16-16s18------------|
G|--------------------------------------------------------------------------------------|
D|--------------------------------------------------------------------------------------|
A|--------------------------------------------------------------------------------------|
E|--------------------------------------------------------------------------------------|

e|------------------------------------16-18-20b21p18p16-18-16-18b20h19p18p16------------|
B|---s18b20-18b20-18-18-13-13---13s18----------------------------------------16-16s17---|
G|--------------------------------------------------------------------------------------|
D|--------------------------------------------------------------------------------------|
A|--------------------------------------------------------------------------------------|
E|--------------------------------------------------------------------------------------|

e|---------16-18-20b21-18-16-16---------------------------------------------------------|
B|---13s18------------------------------------------------------------------------------|
G|--------------------------------------------------------------------------------------|
D|--------------------------------------------------------------------------------------|
A|--------------------------------------------------------------------------------------|
E|--------------------------------------------------------------------------------------|



h = Hammer-on   p = Pull-off    b = Bend

Suggest correction
Give kudos to tab author, rate the tab!
1 2 3 4 5
comments
print report bad tab
guest
You may want to rate the tab now too:
select rating
Wanna post a correction for this tab? Suggest correction