Oops, an error
Loading. Please wait.

Roman Sky Tab

version 3
version 3

Solo

  • The sweaping parts may have been simplified.
  • A more simplified version. right on.

Whole song

Interactive

256 views 18 this week
no commentswrite comment
1 2 3 4 5
x 3
add to favorites
launch autoscroll
font size
0
reset
how to read this tab
guitar tuner
Autoscroll
slow
fast
+/-
esc
set tempo
stop
Help us to improve Ultimate-Guitar.com Take our survey!
×
Author
Difficulty
intermediate
About this tab version
The sweaping parts may have been simplified. Was this info helpful? Yes No
[Solo - 4:03-4:56]

[4:03-4:33]

e|---------------------------------------------------------------------------|
B|--13b15rb13-10-13b15~~~~~~(15)rb13--10--13b14~~~~~~(14)rb13--11---10-------|
G|---------------------------------------------------------------------------|
D|---------------------------------------------------------------------------|
A|---------------------------------------------------------------------------|
E|---------------------------------------------------------------------------|

e|---------------------------------------------------------------------------|
B|--11---10------------------------------------------------------------------|
G|------------10---------------------------------/10~~~~--12-12p10-10~-------|
D|-----------------11~~~~~---10h11p10---8--7---------------------------------|
A|---------------------------------------------------------------------------|
E|---------------------------------------------------------------------------|

e|---------------------------------------------------------------------------|
B|--11-11p9-9-9~---11h13--13b14rb13--11--------------------------------------|
G|--------------------------------------13~--15p13--15/17~b18rb17--15--13----|
D|---------------------------------------------------------------------------|
A|---------------------------------------------------------------------------|
E|---------------------------------------------------------------------------|

e|---------------------------------------------------------------------------|
B|-----------------13--9h11--9-9~~~-11-13-9h11--9-9~~--11--13--13h14p13--11--|
G|-------------------------------------------------------------------------10|
D|--13--14~~--15-------------------------------------------------------------|
A|---------------------------------------------------------------------------|
E|---------------------------------------------------------------------------|

e|---------------------------------------------------------------------------|
B|---------------------------------------------------------------------------|
G|--8--10--8--10/8----------------13--13h10--10~~~---------------------------|
D|------------------11--11--11~~---------------------------------------------|
A|---------------------------------------------------------------------------|
E|---------------------------------------------------------------------------|

[4:33-4:56]

e|--/12--12h15--15h16--15---13-------13-------------14-----16b18rb16--14-13~-|
B|------------------------------13--------14------14-------------------------|
G|----------------------------------------------15---------------------------|
D|---------------------------------------------------------------------------|
A|---------------------------------------------------------------------------|
E|---------------------------------------------------------------------------|

e|--13--13~/11--9~/11--11/13-----15b16rb15---11--11--------------------------|
B|----------------------------------------------------11--11~----------------|
G|---------------------------------------------------------------------------|
D|---------------------------------------------------------------------------|
A|---------------------------------------------------------------------------|
E|---------------------------------------------------------------------------|

e|--------16-20b22rb20--18--16~--18p16---18b20t21p20rb18--16-----------------|
B|------18----------------------------------------------------16--17---------|
G|----17---------------------------------------------------------------------|
D|--18-----------------------------------------------------------------------|
A|---------------------------------------------------------------------------|
E|---------------------------------------------------------------------------|

e|--------16-20b22rb20---18---16--16~~~~~~~----------------------------------|
B|------18-------------------------------------------------------------------|
G|----17---------------------------------------------------------------------|
D|--18-----------------------------------------------------------------------|
A|---------------------------------------------------------------------------|
E|---------------------------------------------------------------------------|

YouTube: https://www.youtube.com/channel/UCzq0I3yf9j4tsg3mucpfOxg
Instagram: johannlothe



************************************

| (n) Ghost note
| h   Hammer-on
| p   Pull-off
| r   Release
| t   Tapping
| b   Bend
| br  Bend release
| /   Slide up
| \   Slide down
| ~   Vibrato

************************************
Suggest correction
Give kudos to tab author, rate the tab!
1 2 3 4 5
comments
print report bad tab
guest
You may want to rate the tab now too:
select rating
Wanna post a correction for this tab? Suggest correction