Oops, an error
Loading. Please wait.

Roman Sky Tab

version 4
version 4

Solo

  • The sweaping parts may have been simplified.
  • A more simplified version. right on.

Whole song

Interactive

169 views 1 this week
no commentswrite comment
1 2 3 4 5
3 more votes to show rating
add to favorites
launch autoscroll
font size
0
reset
how to read this tab
guitar tuner
Autoscroll
slow
fast
+/-
esc
set tempo
stop
Help us to improve Ultimate-Guitar.com Take our survey!
×
Author
Difficulty
Tuning
intermediate
D A D G B E
About this tab version
A more simplified version. right on. Was this info helpful? Yes No
here's my take: https://www.youtube.com/watch?v=jigUuTXhhpI

[Solo]
e|---------------------------------------------------------------------------|
B|----15pbr13p10---13b15~p10--13b14~---10-11-10------------------------------|
G|---------------------------------------------10----------------------------|
D|-----------------------------------------------11--------------------------|
A|---------------------------------------------------------------------------|
E|---------------------------------------------------------------------------|

e|---------------------------------------------------------------------------|
B|-----------------------------------/11---9---9---11-13--13b14p11--11/9-----|
G|----------------/10--/12--10--10~------------------------------------------|
D|-/10h11p10/8-7-------------------------------------------------------------|
A|---------------------------------------------------------------------------|
E|---------------------------------------------------------------------------|


e|---------------------------------------------------------------------------|
B|---11p9--11/13b14p11/9-----4--5~---/13-11 9---11-13---13/11--9-9-----------|
G|---------------------------------------------------------------------------|
D|---------------------------------------------------------------------------|
A|---------------------------------------------------------------------------|
E|---------------------------------------------------------------------------|

e|---------------------------------------------------------------------------|
B|---11-13b14p11/6----4-6---4h6p4/2/1--2~---9p6~-----------------------------|
G|---------------------------------------------------------------------------|
D|---------------------------------------------------------------------------|
A|---------------------------------------------------------------------------|
E|---------------------------------------------------------------------------|


e|-----/12--15b16--13-------------13--16b17p14--13p11/9/11-13--15b-13-13-----|
B|---------------------13-14---14-----------------------------------------14-|
G|---------------------------------------------------------------------------|
D|---------------------------------------------------------------------------|
A|---------------------------------------------------------------------------|
E|---------------------------------------------------------------------------|

e|----------------------16-18-20b21p18p16-18-16-18b20h19p18p16---------------|
B|----------13s18-------------------------------------------------16-16s17---|
G|---------------------------------------------------------------------------|
D|---------------------------------------------------------------------------|
A|---------------------------------------------------------------------------|
E|---------------------------------------------------------------------------|

e|---------16-18-20b21-18-16-16----------------------------------------------|
B|---13s18-------------------------------------------------------------------|
G|---------------------------------------------------------------------------|
D|---------------------------------------------------------------------------|
A|---------------------------------------------------------------------------|
E|---------------------------------------------------------------------------|


 

************************************

| p    Pull-off
| b    Bend
| pbr  Pre-bend release
| ~    Vibrato
| /    Slide up
| h    Hammer-on 

************************************
Suggest correction
Give kudos to tab author, rate the tab!
1 2 3 4 5
comments
print report bad tab
guest
You may want to rate the tab now too:
select rating
Wanna post a correction for this tab? Suggest correction