Oops, an error
Loading. Please wait.

Roman Sky Tab

version 1
version 1

Whole song

Interactive

12,100 views 801 this week
8 commentsread comments
1 2 3 4 5
x 22
add to favorites
launch autoscroll
font size
0
reset
how to read this tab
guitar tuner
Autoscroll
slow
fast
+/-
esc
set tempo
stop
Help us to improve Ultimate-Guitar.com Take our survey!
×
Author
Difficulty
intermediate
All by ear. If you find any mistake please let me know ! :) 
https://www.youtube.com/watch?v=jigUuTXhhpI

[Intro]

e|---1-------1------0--1-1-0-------------------------------------------------|
B|---3---1h3---3----1--------1--1-3--3---------------------------------------|
G|---2~-------------0-----------2-3--3---3-3-2-2-0-0-------------------------|
D|---0~-------------2----------------3---------------3-3--2---0~-------------|
A|------------------3----------------1---------------------------------------|
E|---------------------------------------------------------------------------|(x4)
 
[ First Verse]

e|-------------0----------------------0-------------------0------------------|
B|-----------0---0------------------0---0---------------0---0----------------|
G|---------2-------2--------------2-------2-----------2-------2--------------|
D|----2--2------------2---------2-----------2-------2-----------2------------|
A|----0-----------------------0----------------------------------------------|
E|------------------------------------------------3--------------------------|



e|------------0--------------0-------0---------------------------------------|
B|----------0---0------------1-------0---------------------------------------|
G|--------2-------2----------0-------0---------------------------------------|
D|------2-----------2--------2-------2---------------------------------------|
A|---------------------------3-------2---------------------------------------|
E|----3------------------------------0---------------------------------------|(x2)

[Chorus]

e|---------------------------------------0--------------1--------------------|
B|----2-------------------------2------2----------3-------3------------------|
G|----2--3--2h3p2-------------2------2----------2----2------2----------------|
D|----2------------5-3-2----2------2----------0----------------0-------------|
A|----0-------------------0--------------------------------------------------|
E|---------------------------------------------------------------------------|


e|--------------0--------------------1-------------------------0-------------|
B|---------1------1--------------1-----1--------------2------2---------------|
G|-------0---0------0--------------2-----2----------2------2-----------------|
D|--------------------2-------3------------3------2------2-------------------|
A|----3-----------------------------------------0----------------------------|
E|-------------------------1-------------------------------------------------|

e|-------------1-------------------------------------------------------------|
B|--------3-------3----------------------------------------------------------|
G|------2---2-------2--------------------------------------------------------|
D|----0----------------0-----------------------------------------------------|
A|---------------------------------------------------------------------------|
E|---------------------------------------------------------------------------|

e|------------1p0--------------------1-------------------------0-------------|
B|---------1------1--------------1-----1--------------2------2---------------|
G|-------0---0------0--------------2-----2----------2------2-----------------|
D|----------------------------3------------3------2------2-------------------|
A|----3-----------------------------------------0----------------------------|
E|-------------------------1-------------------------------------------------|


e|-----------------------------------0---------------------------------------|
B|--------3----------------3-------------------------------------------------|
G|----3-----3---3--------3--------6------------------------------------------|
D|------3-----3--------3--------5--------------------------------------------|
A|--1----------------1--------4----------------------------------------------|
E|---------------------------------------------------------------------------|

[break]

e|---1-------1------0--1-1-0-------------------------------------------------|
B|---3---1h3---3----1--------1--1-3--3---------------------------------------|
G|---2~-------------0-----------2-3--3---3-3-2-2-0-0-------------------------|
D|---0~-------------2----------------3---------------3-3--2---0~-------------|
A|------------------3----------------1---------------------------------------|
E|---------------------------------------------------------------------------|(x2)


[second verse]

e|-------------0----------------------0-------------------0------------------|
B|-----------0---0------------------0---0---------------0---0----------------|
G|---------2-------2--------------2-------2-----------2-------2--------------|
D|----2--2------------2---------2-----------2-------2-----------2------------|
A|----0-----------------------0----------------------------------------------|
E|------------------------------------------------3--------------------------|



e|------------0--------------0-------0---------------------------------------|
B|----------0---0------------1-------0---------------------------------------|
G|--------2-------2----------0-------0---------------------------------------|
D|------2-----------2--------2-------2---------------------------------------|
A|---------------------------3-------2---------------------------------------|
E|----3------------------------------0---------------------------------------|(x2)


[Chorus]

e|---------------------------------------0--------------1--------------------|
B|----2-------------------------2------2----------3-------3------------------|
G|----2--3--2h3p2-------------2------2----------2----2------2----------------|
D|----2------------5-3-2----2------2----------0----------------0-------------|
A|----0-------------------0--------------------------------------------------|
E|---------------------------------------------------------------------------|


e|--------------0--------------------1-------------------------0-------------|
B|---------1------1--------------1-----1--------------2------2---------------|
G|-------0---0------0--------------2-----2----------2------2-----------------|
D|--------------------2-------3------------3------2------2-------------------|
A|----3-----------------------------------------0----------------------------|
E|-------------------------1-------------------------------------------------|

e|-------------1-------------------------------------------------------------|
B|--------3-------3----------------------------------------------------------|
G|------2---2-------2--------------------------------------------------------|
D|----0----------------0-----------------------------------------------------|
A|---------------------------------------------------------------------------|
E|---------------------------------------------------------------------------|

e|------------1p0--------------------1-------------------------0-------------|
B|---------1------1--------------1-----1--------------2------2---------------|
G|-------0---0------0--------------2-----2----------2------2-----------------|
D|----------------------------3------------3------2------2-------------------|
A|----3-----------------------------------------0----------------------------|
E|-------------------------1-------------------------------------------------|


e|-----------------------------------0---------------------------------------|
B|--------3----------------3-------------------------------------------------|
G|----3-----3---3--------3--------6------------------------------------------|
D|------3-----3--------3--------5--------------------------------------------|
A|--1----------------1--------4----------------------------------------------|
E|---------------------------------------------------------------------------|

[Guitar break ]

e|---1-------1------0--1-1-0-------------------------------------------------|
B|---3---1h3---3----1--------1--1-3--3---------------------------------------|
G|---2~-------------0-----------2-3--3---3-3-2-2-0-0-------------------------|
D|---0~-------------2----------------3---------------3-3--2---0~-------------|
A|------------------3----------------1---------------------------------------|
E|---------------------------------------------------------------------------|(x2)


Chords for Rhythm: Dm-C-A#


[Third verse] Play rhythm with chords: Asus2-Asus2/G- C-Em

[Chorus]

e|---------------------------------------0--------------1--------------------|
B|----2-------------------------2------2----------3-------3------------------|
G|----2--3--2h3p2-------------2------2----------2----2------2----------------|
D|----2------------5-3-2----2------2----------0----------------0-------------|
A|----0-------------------0--------------------------------------------------|
E|---------------------------------------------------------------------------|


e|--------------0--------------------1-------------------------0-------------|
B|---------1------1--------------1-----1--------------2------2---------------|
G|-------0---0------0--------------2-----2----------2------2-----------------|
D|--------------------2-------3------------3------2------2-------------------|
A|----3-----------------------------------------0----------------------------|
E|-------------------------1-------------------------------------------------|

e|-------------1-------------------------------------------------------------|
B|--------3-------3----------------------------------------------------------|
G|------2---2-------2--------------------------------------------------------|
D|----0----------------0-----------------------------------------------------|
A|---------------------------------------------------------------------------|
E|---------------------------------------------------------------------------|

e|------------1p0--------------------1-------------------------0-------------|
B|---------1------1--------------1-----1--------------2------2---------------|
G|-------0---0------0--------------2-----2----------2------2-----------------|
D|----------------------------3------------3------2------2-------------------|
A|----3-----------------------------------------0----------------------------|
E|-------------------------1-------------------------------------------------|


e|-----------------------------------0---------------------------------------|
B|--------3----------------3-------------------------------------------------|
G|----3-----3---3--------3--------6------------------------------------------|
D|------3-----3--------3--------5--------------------------------------------|
A|--1----------------1--------4----------------------------------------------|
E|---------------------------------------------------------------------------|



************************************



| h   Hammer-on
| p   Pull-off


************************************
Suggest correction
comments
print report bad tab
8 comments total. Showing first comments.
0 reply
williamshak41 33 Oct 30, 2016 06:36 PM

what tuning is this in?

+3 reply
hammersmite 15 Oct 31, 2016 12:00 AM

Fairly sure it's in Drop D

+6 reply
timmsie1995 10 Oct 31, 2016 03:07 AM

I'm pretty sure it's drop D, and the intro riff is:
e|---1-------1------0--1-1-0-------------------------------------------------|
B|---3---1h3---3----1--------1--1-3--3---------------------------------------|
G|---2~-------------0-----------2-3--3---------------------------------------|
D|---0~-------------2----------------3-----------------------0---------------|
A|------------------3----------------1-----1-1-0-0-----------0---------------|
D|-------------------------------------------------5-5-3-3-2-0---------------|

it sounds more right to me, but then I can't get the rest of the somg to sound right in drop D, haha.

guest
You may want to rate the tab now too:
select rating
Wanna post a correction for this tab? Suggest correction