Oops, an error
Loading. Please wait.

Roman Sky Tab

version 2
version 2

Whole song

Interactive

2,944 views 477 this week
no commentswrite comment
1 2 3 4 5
x 6
add to favorites
launch autoscroll
font size
0
reset
how to read this tab
guitar tuner
Autoscroll
slow
fast
+/-
esc
set tempo
stop
Help us to improve Ultimate-Guitar.com Take our survey!
×
Author
Difficulty
Tuning
advanced
D A D G B E
https://www.youtube.com/watch?v=eWUVT8saikE



[Intro Riff]

e|------------------0----1-1-0-------0--(5)(5)-------------------------------|
B|----------6-------1----------1-----1---3--3--------------------------------|
G|------5h7---7~----0----------------0---3--3--------------------------------| x 3 times
D|-----(0)----------2----------------3---3--3------0-0-0-0-0-0-0-0-----------|
A|------------------3------------------------------8-8-7-7-5-5-3-3-----------|
D|--0----------------------------------------------8-8-7-7-5-5-3-3-2---------|

e|------------------0----1-1-0-------0---5--5--------------------------------|
B|----------6-------1----------1-----5---3--3--------------------------------|
G|------5h7---7~----0----------------5---3--3--------------------------------| 
D|-----(0)----------2----------------5---3--3--------------------------------|
A|------------------3--------------------------------------------------------|
D|--0------------------------------------------------------------------------|


 
[Verse]

e|------0--------0----------------0-----------------0-----------------0------|
B|-----0---0---0---0------------0---0-----------0-----0-----------0----------|
G|----2------2-------2----2---2-------2----4--4---4-----4----4--4---4----4/5-|
D|---2-----------------2--2-2----------2---0--------------0--0---------------|
A|--0---------------------0----------------7-----------------7---------------|
D|-----------------------------------------5-----------------5---------------|

e|-------------------------------0--0---0--0--0-0----------------------------|
B|--1----1-------1-3-1---1-------0--0---0--0--0-0----------------------------|
G|--0----0-------0-0-0---0-------0--0---0--0--0-0----------------------------|
D|--2----2-------2-2-2---2-------2--2---2--2--2-2----------------------------|
A|--3----3-------3-3-3---3-------2--2---2--2--2-2----------------------------|
D|---------------------------------------------------------------------------|

e|------0--------0----------------0-----------------0-----------------0------|
B|-----0---0---0---0------------0---0-----------0-----0-----------0----------|
G|----2------2-------2----2---2-------2----4--4---4-----4----4--4---4----4/5-|
D|---2-----------------2--2-2----------2---0--------------0--0---------------|
A|--0---------------------0----------------7-----------------7---------------|
D|-----------------------------------------5-----------------5---------------|

e|-------------------------------0--0---0--0--0-0----------------------------|
B|--1----1---3---1-3-1---1-------0--0---0--0--0-0----------------------------|
G|--0----0---0---0-0-0---0-------0--0---0--0--0-0--0-------------------------|
D|--2----2---2---2-2-2---2-------2--2---2--2--2-2--0-------------------------|
A|--3----3---3---3-3-3---3-------2--2---2--2--2-2--0-------------------------|
D|---------------------------------------------------------------------------|

[Prechorus]

e|---------------------------------------------------------------------------|
B|-------------------------------2----------5--------------------------------|
G|-----------------------------2----------6----------------------------------|
D|--2----8-7h8p7p5--------2--2----------7------------------------------------|
A|--0--------------8p7----0-----------4--------------------------------------|
D|---------------------------------------------------------------------------|


[Chorus]

e|-----------------------------------------1---------------------------------|
B|---------6-----------3---5-3---------------1-----------2-------5-----------|
G|-----7-----7---------5-------5-------0h2-----0-------2-------6-------------|
D|---7---7-----7-----5---5-------5---3-----------3---2-------7---------------|
A|-5-------------5-3-------------------------------0-------4-----------------|
D|---------------------------------3-----------------------------------------|

e|-----------------------------------------1---------------0-----------------|
B|---------6-----------3---5-3---------------1-----------2---2---------------|
G|-----7-----7---------5-------5-------0h2-----0-------0-------0-------------|
D|---7---7-----7-----5---5-------5---3-----------3---2-----------2-----------|
A|-5-------------5-3-------------------------------0-------------------------|
D|---------------------------------3-----------------------------------------|

e|---------------------------------------------------------------------------|
B|---------3--------------3-------5------------------------------------------|
G|-----3-----3----------3-------3--------------------------------------------|
D|---3---3-----3------3-------5----------------------------------------------|
A|-1-------------1--1-------4------------------------------------------------|
D|---------------------------------------------------------------------------|

[Intro Riff]

e|------------------0----1-1-0-------0--(5)(5)-------------------------------|
B|----------6-------1----------1-----1---3--3--------------------------------|
G|------5h7---7~----0----------------0---3--3--------------------------------|
D|-----(0)----------2----------------3---3--3------0-0-0-0-0-0-0-0-----------|
A|------------------3------------------------------8-8-7-7-5-5-3-3-----------|
D|--0----------------------------------------------8-8-7-7-5-5-3-3-2---------|

e|------------------0----1-1-0-------0---5--5--------------------------------|
B|----------6-------1----------1-----5---3--3--------------------------------|
G|------5h7---7~----0----------------5---3--3--------------------------------| 
D|-----(0)----------2----------------5---3--3--------------------------------|
A|------------------3--------------------------------------------------------|
D|--0------------------------------------------------------------------------|

[Verse]

e|------0--------0----------------0-----------------0-----------------0------|
B|-----0---0---0---0------------0---0-----------0-----0-----------0----------|
G|----2------2-------2----2---2-------2----4--4---4-----4----4--4---4----4/5-|
D|---2-----------------2--2-2----------2---0--------------0--0---------------|
A|--0---------------------0----------------7-----------------7---------------|
D|-----------------------------------------5-----------------5---------------|

e|-------------------------------0--0---0--0--0-0----------------------------|
B|--1----1-------1-3-1---1-------0--0---0--0--0-0----------------------------|
G|--0----0-------0-0-0---0-------0--0---0--0--0-0----------------------------|
D|--2----2-------2-2-2---2-------2--2---2--2--2-2----------------------------|
A|--3----3-------3-3-3---3-------2--2---2--2--2-2----------------------------|
D|---------------------------------------------------------------------------|

e|------0--------0----------------0-----------------0-----------------0------|
B|-----0---0---0---0------------0---0-----------0-----0-----------0----------|
G|----2------2-------2----2---2-------2----4--4---4-----4----4--4---4----4/5-|
D|---2-----------------2--2-2----------2---0--------------0--0---------------|
A|--0---------------------0----------------7-----------------7---------------|
D|-----------------------------------------5-----------------5---------------|

e|-------------------------------0--0---0--0--0-0----------------------------|
B|--1----1---3---1-3-1---1-------0--0---0--0--0-0----------------------------|
G|--0----0---0---0-0-0---0-------0--0---0--0--0-0--0-------------------------|
D|--2----2---2---2-2-2---2-------2--2---2--2--2-2--0-------------------------|
A|--3----3---3---3-3-3---3-------2--2---2--2--2-2--0-------------------------|
D|---------------------------------------------------------------------------|

[Prechorus]

e|---------------------------------------------------------------------------|
B|-------------------------------2----------5--------------------------------|
G|-----------------------------2----------6----------------------------------|
D|--2----8-7h8p7p5--------2--2----------7------------------------------------|
A|--0--------------8p7----0-----------4--------------------------------------|
D|---------------------------------------------------------------------------|

[Chorus]

e|-----------------------------------------1---------------------------------|
B|---------6-----------3---5-3---------------1-----------2-------5-----------|
G|-----7-----7---------5-------5-------0h2-----0-------2-------6-------------|
D|---7---7-----7-----5---5-------5---3-----------3---2-------7---------------|
A|-5-------------5-3-------------------------------0-------4-----------------|
D|---------------------------------3-----------------------------------------|

e|-----------------------------------------1---------------0-----------------|
B|---------6-----------3---5-3---------------1-----------2---2---------------|
G|-----7-----7---------5-------5-------0h2-----0-------0-------0-------------|
D|---7---7-----7-----5---5-------5---3-----------3---2-----------2-----------|
A|-5-------------5-3-------------------------------0-------------------------|
D|---------------------------------3-----------------------------------------|

e|---------------------------------------------------------------------------|
B|---------3--------------3-------5------------------------------------------|
G|-----3-----3----------3-------3--------------------------------------------|
D|---3---3-----3------3-------5----------------------------------------------|
A|-1-------------1--1-------4------------------------------------------------|
D|---------------------------------------------------------------------------|

[Intro Riff]

e|------------------0----1-1-0-------0---------------------------------------|
B|----------6-------1----------1-----1---3--3--------------------------------|
G|------5h7---7~----0----------------0---3--3--------------------------------| 
D|-----(0)----------2----------------3---3--3------0-0-0-0-0-0-0-0-----------| 
A|------------------3--------------------1--1------8-8-7-7-5-5-3-3-----------|
D|--0----------------------------------------------8-8-7-7-5-5-3-3-2---------| 

e|------------------0----1-1-0-------0---5--5--------------------------------|
B|----------6-------1----------1-----1---3--3--------------------------------|
G|------5h7---7~----0----------------0---3--3--------------------------------| 
D|-----(0)----------2----------------3---3--3------0-0-0-0-0-0-0-0-----------| 
A|------------------3------------------------------8-8-7-7-5-5-3-3-----------|
D|--0----------------------------------------------8-8-7-7-5-5-3-3-2---------| 

e|----------8-------0----1-1-0-------0---5--5--------------------------------|
B|--------6---6-----1----------1-----1---3--3--------------------------------|
G|------5h7---7~----0----------------0---3--3--------------------------------| 
D|-----(0)----0-----2----------------3---3--3------0-0-0-0-0-0-0-0-----------| 
A|------------------3------------------------------8-8-7-7-5-5-3-3-----------|
D|--0----------------------------------------------8-8-7-7-5-5-3-3-2---------| 

e|------------------0----1-1-0-------0---5--5--------------------------------|
B|----------6-------1----------1-----1---3--3--------------------------------|
G|------5h7---7~----0----------------0---3--3--------------------------------| 
D|-----(0)----------2----------------3---3--3------0-0-0-0-0-0-0-0-----------| 
A|------------------3------------------------------8-8-7-7-5-5-3-3-----------|
D|--0----------------------------------------------8-8-7-7-5-5-3-3-2---------|


[Lead Guitar]

e|-------10----10---8----8----8--10-10---------------------------------------|
B|---------------------------------------------------------------------------|
G|--5/10----10------9-----9---9--10-10---------------------------------------|
D|---------------------------------------------------------------------------|
A|---------------------------------------------------------------------------|
D|---------------------------------------------------------------------------|

e|-------13----13--13---15--12--12-10-12-13--12s10-10-10---------------------|
B|-------------------------------------------x-sx--x--x------10pbr8p6--------|
G|--5/14----14--------------12---------------12s10-10-10---------------------|
D|---------------------------------------------------------------------------|
A|---------------------------------------------------------------------------|
D|---------------------------------------------------------------------------|

e|---------------------------------------------------------------------------|
B|--5h6-6-6-6-8-5h6-6-6-6-8---5\3--3-3---------------------------------------|
G|--7-----------7---7----------------------------------------------5-5b------|
D|----------------------------5\3--3-3------------------------5/7------------|
A|---------------------------------------------------------------------------|
D|---------------------------------------------------------------------------|


e|------10-10---10--------12----12--------13----13-------17-17----17----17---|
B|---------------------------------------------------------------------------|
G|-7/10------10-----10/12----12-----12/14----14----14/17-------17----17----17|
D|---------------------------------------------------------------------------|
A|---------------------------------------------------------------------------|
D|---------------------------------------------------------------------------|

[Bridge]

Rhythm Guitar

e|---------------------------------------------------------------------------|
B|---------------------------------------------------------------------------|
G|---------------------------------------------------------------------------|
D|---------------------------------------------------------------------------| 2x
A|---------------------------------------------------------------------------|
D|-0-0-0-0-0-0-0-0-2-2-2-2-2-2-2-2-3-3-3-3-3-3-3-3-5-5-5-5-5-5-5-5-----------|

while

Lead Guitar

e|---------------------------------------------------------------------------|
B|---------------------------------------------------------------------------|
G|--19-19-19\--14-14-14\--10-10-10\--7-7-10-7--7-7-7--7/9--9-9-10-9\---------|
D|---------------------------------------------------------------------------|
A|--17-17-17\--12-12-12\--8--8--8\---5-5-8--5--5-5-5--5/7--7-7-8--7\---------|
D|---------------------------------------------------------------------------|

e|------10-10---10----10-------12----12----12------13----13-----13-----------|
B|---------------------------------------------------------------------------|
G|-7/10------10----10----10/12----12----12----12/14----14----14--------------|
D|---------------------------------------------------------------------------|
A|---------------------------------------------------------------------------|
D|---------------------------------------------------------------------------|

e|--------15----15---------15------------------------------------------------|
B|---------------------------------------------------------------------------|
G|---14/15---15----15--15----------------------------------------------------|
D|---------------------------------------------------------------------------|
A|---------------------------------------------------------------------------|
D|---------------------------------------------------------------------------|


Rhythm Guitar again

e|---0----------0---------0--------0-----------------------------------------|
B|---0----------0---------1--------0-----------------------------------------|
G|---2----------4---------0--------0-----------------------------------------| 4x
D|---2----------0---------2--------2------etc...like verse-------------------|
A|---0----------5---------3--------2-----------------------------------------|
D|--------------3------------------2-----------------------------------------|

[Prechorus]

e|---------------------------------------------------------------------------|
B|-------------------------------2----------5--------------------------------|
G|-----------------------------2----------6----------------------------------|
D|--2----8-7h8p7p5--------2--2----------7------------------------------------|
A|--0--------------8p7----0-----------4--------------------------------------|
D|---------------------------------------------------------------------------|

[Chorus]

e|-----------------------------------------1---------------------------------|
B|---------6-----------3---5-3---------------1-----------2-------5-----------|
G|-----7-----7---------5-------5-------0h2-----0-------2-------6-------------|
D|---7---7-----7-----5---5-------5---3-----------3---2-------7---------------|
A|-5-------------5-3-------------------------------0-------4-----------------|
D|---------------------------------3-----------------------------------------|

e|-----------------------------------------1---------------0-----------------|
B|---------6-----------3---5-3---------------1-----------2---2---------------|
G|-----7-----7---------5-------5-------0h2-----0-------0-------0-------------|
D|---7---7-----7-----5---5-------5---3-----------3---2-----------2-----------|
A|-5-------------5-3-------------------------------0-------------------------|
D|---------------------------------3-----------------------------------------|

e|---------------------------------------------------------------------------|
B|---------3--------------3-------5------------------------------------------|
G|-----3-----3----------3-------3--------------------------------------------|
D|---3---3-----3------3-------5----------------------------------------------|
A|-1-------------1--1-------4------------------------------------------------|
D|---------------------------------------------------------------------------|

[SOLO]

With distortion, reverb and delay. Synyster may play it on different frets, but the notes should be the same.
Be aware of the notes that are barely audible but I tabbed them as well (microbends, slides and so on).

e|---------------------------------------------------------------------------|
B|-15pbr13p10-13b15-----r13p10--13b14--r13-11-10b11-11-10b11-----------------|
G|----------------------------12-----------------------------10--------------|
D|--------------------------------------------------------------11---\-------|
A|---------------------------------------------------------------------------|
D|---------------------------------------------------------------------------|

e|------------------------------------------------------8-9~--8--------------|
B|-----------------------------------/11-11-9-9---9-h11---------11-9~---11p9-|
G|-5--6p5p3-2-2--/10---/12-12-10-10------------------------------------------|
D|---------------------------------------------------------------------------|
A|---------------------------------------------------------------------------|
D|---------------------------------------------------------------------------|

e|---------------------------------------------------------------------------|
B|-11b13t12p13r11-p9------------8/13---13pbr11-9-9---11b13r11-9h11-9-9-------|
G|-------------------8-9~~~~-/9----------------------------------------------|
D|---------------------------------------------------------------------------|
A|---------------------------------------------------------------------------|
D|---------------------------------------------------------------------------|

e|-----8-8h9-8---------------------------------------------------------------|
B|--11---------11------------------------------------9--6h9p6~---\-----------|
G|----------------10~-\--8h10-8--10/8--10/6--6~------------------------------|
D|---------------------------------------------------------------------------|
A|---------------------------------------------------------------------------|
D|---------------------------------------------------------------------------|

e|------15-15h16--13h15~--13------13--------------13-16-16b18r16-16--13-13~~-|
B|--/17----------------------13------14-----14-16----------------------------|
G|---------------------------------------------------------------------------|
D|---------------------------------------------------------------------------|
A|---------------------------------------------------------------------------|
D|---------------------------------------------------------------------------|

e|--13-13-\-11-----11--13~~~~--\--/13/15b16r15----13-13--13------------------|
B|--------------14---------------------------------------------13-13~~~-\----|
G|---------------------------------------------------------------------------|
D|---------------------------------------------------------------------------|
A|---------------------------------------------------------------------------|
D|---------------------------------------------------------------------------|

       sweeping

e|-------------18-20-20b21r-18--------18-16-18b20-t19p20r18-16---------------|
B|--------18-21---------------21-21-----------------------------16-17~~------|
G|------17-------------------------------------------------------------------|
D|---(18)--------------------------------------------------------------------|
A|-(20)----------------------------------------------------------------------|
D|---------------------------------------------------------------------------|

Ending

Option

 1.    sweeping

e|--------------------18-20-20b21~~-r20-18-----------------------------------|
B|---------------17-21----------------------21-21~~~~~~~~~\------------------|
G|-------------18------------------------------------------------------------|
D|--------18-20--------------------------------------------------------------|
A|---16-19-------------------------------------------------------------------|
D|---------------------------------------------------------------------------|

Option (Whole solo in Standard tuning)

 2.    sweeping

e|--------------------18-20-20b21~~-r20-18-----------------------------------|
B|---------------17-21----------------------21-21~~~~~~~~~\------------------|
G|-------------18------------------------------------------------------------|
D|--------18-20--------------------------------------------------------------|
A|------19-------------------------------------------------------------------|
E|----21---------------------------------------------------------------------|


 
************************************

| x   Dead note
| g   Grace note
| (n) Ghost note
| h   Hammer-on
| p   Pull-off
| r   Release
| >   Accented note
| t   Tapping
| b   Bend
| br  Bend release
| pb  Pre-bend
| pbr Pre-bend release
| /   Slide up
| \   Slide down
| ~   Vibrato
| s   Slap
| P   Pop
| PM  Palm mute
| TR  Trill
| N   Tremolo

************************************
Suggest correction
comments
print report bad tab
guest
You may want to rate the tab now too:
select rating
Wanna post a correction for this tab? Suggest correction