Oops, an error
Loading. Please wait.

Roman Sky Chords

version 3
version 3

Whole song

  • Contains strumming and picking patterns, along wit... Show more

Interactive

850 views 45 this week
no commentswrite comment
1 2 3 4 5
1 last vote to show rating
add to favorites
launch autoscroll
font size
0
reset
transpose
0
reset
simplify chords
display chords
guitar tuner
Autoscroll
slow
fast
+/-
esc
set tempo
stop
Help us to improve Ultimate-Guitar.com Take our survey!
×
Author
Difficulty
novice
About this tab version
Contains strumming and picking patterns, along with full lyrics. Standard tuning, no capo required. Novice - intermediate difficulty. Was this info helpful? Yes No
Avenged Sevenfold - Roman Sky
The Stage

So far there's no submission that has both the tab and the lyrics so I decided to make one.
This is just a combination of Iwalkalone11's tab and ShatterhandFan's chords. All credit to them.
Anyways, here we go.

[Intro] (Let ring throughout)

  Dm               C               Bb
e|1------1---------0-----1-1-0-------------------------------------|
B|3---1h3--3-------1-----------1---1/3-3---3-----------------------|
G|2----------------0---------------2/3-3---3-----3-3-2-2-0-0-------|
D|0----------------2----------------------(3)----------------3-3-2-|
A|-----------------3----------------------(1)----------------------|
E|-----------------------------------------------------------------|  x4
  1        2       3       4       1       2       3       4       

[Verse]
          As the embers rose through the Roman sky
  Asus2                           Asus2/G                      
e|0-------0---------------0---------------0---------------0-------|
B|0-----0---0-----------0---0-----------0---0-----------0---0-----|
G|2---2-------2-------2-------2-------2-------2-------2-------2---|
D|2(2)----------2---2-----------2---2-----------2---2-----------2-|
A|0---------------0-----------------------------------------------|
E|--------------------------------3---------------3---------------|
  1       2       3       4       1       2       3       4       

  C                Em
 |X---X--X-XX-XXXX|X---X--X-XX-XXXX| 
  1   2   3   4    1   2   3   4   

Asus2               Asus2/G                  C     Em  
   Tell me were you calm when they took your life?

[Chorus] *with epicness
                 Just before you go,                  tell us how the heavens flow       
  A                                   Dm              C
e|----------------------------------0---------1---------------0-------|
B|2-------------------------2-----2-------3-----3---------1-----1-----|
G|2-----3-2h3p2-----------2-----2-------2---2-----2-----0---0-----0---|
D|2-------------5-3-2---2-----2-------0-------------0---------------2-|
A|0-------------------0-------------------------------3---------------|
E|--------------------------------------------------------------------|
  1       2           3       4       1       2       3       4       
                   Weightless evermore       As you walk beyond that door       
  F               A               Dm              C
e|--------1---------------------0---------1---------------0-------|
B|----1-----1-----------2-----2-------3-----3---------1-----1-----|
G|------2-----2-------2-----2-------2---2-----2-----0---0-----0---|
D|--3-----------3---2-----2-------0-------------0-----------------|
A|----------------0-------------------------------3-------------3-|
E|1---------------------------------------------------------------|
  1       2       3       4       1       2       3       4       
                    Shine forever true
  F               A               Bb                      C#dim
e|--------1-----------------------------------------------------0-|
B|----1-----1-------------2---------------3-------------3---------|
G|------2-----2-------2-----2---2-----3-----3---3-----3-------6---|
D|--3-----------3---2---2-----2-----3---3-----3-----3-------5-----|
A|----------------0---------------1---------------1-------4-------|
E|1---------------------------------------------------------------|
  1       2       3       4       1       2       3       4       

[Interude] 

  Dm               C               Bb
e|1------1---------0-----1-1-0-------------------------------------|
B|3---1h3--3-------1-----------1---1/3-3---3-----------------------|
G|2----------------0---------------2/3-3---3-----3-3-2-2-0-0-------|
D|0----------------2----------------------(3)----------------3-3-2-|
A|-----------------3----------------------(1)----------------------|
E|-----------------------------------------------------------------|  x2
  1        2       3       4       1       2       3       4       

[Verse]
              Shared with us, the world well before your time
  Asus2                           Asus2/G                      
e|0-------0---------------0---------------0---------------0-------|
B|0-----0---0-----------0---0-----------0---0-----------0---0-----|
G|2---2-------2-------2-------2-------2-------2-------2-------2---|
D|2(2)----------2---2-----------2---2-----------2---2-----------2-|
A|0---------------0-----------------------------------------------|
E|--------------------------------3---------------3---------------|
  1       2       3       4       1       2       3       4       

  C                Em
 |X---X--X-XX-XXXX|X---X--X-XX-XXXX| 
  1   2   3   4    1   2   3   4   

Asus2                    Asus2/G             C     Em 
   Though they took your voice words forever shine, yeah
[Chorus] 
                 Just before you go,                  tell us how the heavens flow       
  A                                   Dm              C
e|----------------------------------0---------1---------------0-------|
B|2-------------------------2-----2-------3-----3---------1-----1-----|
G|2-----3-2h3p2-----------2-----2-------2---2-----2-----0---0-----0---|
D|2-------------5-3-2---2-----2-------0-------------0---------------2-|
A|0-------------------0-------------------------------3---------------|
E|--------------------------------------------------------------------|
  1       2           3       4       1       2       3       4       
                   Weightless evermore       As you walk beyond that door       
  F               A               Dm              C
e|--------1---------------------0---------1---------------0-------|
B|----1-----1-----------2-----2-------3-----3---------1-----1-----|
G|------2-----2-------2-----2-------2---2-----2-----0---0-----0---|
D|--3-----------3---2-----2-------0-------------0-----------------|
A|----------------0-------------------------------3-------------3-|
E|1---------------------------------------------------------------|
  1       2       3       4       1       2       3       4       
                    Shine forever true
  F               A               Bb                      C#dim
e|--------1-----------------------------------------------------0-|
B|----1-----1-------------2---------------3-------------3---------|
G|------2-----2-------2-----2---2-----3-----3---3-----3-------6---|
D|--3-----------3---2---2-----2-----3---3-----3-----3-------5-----|
A|----------------0---------------1---------------1-------4-------|
E|1---------------------------------------------------------------|
  1       2       3       4       1       2       3       4       

[Solo]

  Dm               C               Bb
e|1------1---------0-----1-1-0-------------------------------------|
B|3---1h3--3-------1-----------1---1/3-3---3-----------------------|
G|2----------------0---------------2/3-3---3-----3-3-2-2-0-0-------|
D|0----------------2----------------------(3)----------------3-3-2-|
A|-----------------3----------------------(1)----------------------|
E|-----------------------------------------------------------------|  x4
  1        2       3       4       1       2       3       4       

Dm      C      Bb                   x2 (strummed)

[Verse] All strummed
Asus2                 Asus/G                 C    Em
   As they spoke your fate a fearless man replied
Asus2                    Asus/G                 C     Em 
   "As you will sentence me, you fear is beyond mine" Yeah

[Chorus] 
                 Just before you go,                  tell us how the heavens flow       
  A                                   Dm              C
e|----------------------------------0---------1---------------0-------|
B|2-------------------------2-----2-------3-----3---------1-----1-----|
G|2-----3-2h3p2-----------2-----2-------2---2-----2-----0---0-----0---|
D|2-------------5-3-2---2-----2-------0-------------0---------------2-|
A|0-------------------0-------------------------------3---------------|
E|--------------------------------------------------------------------|
  1       2           3       4       1       2       3       4       
                   Weightless evermore       As you walk beyond that door       
  F               A               Dm              C
e|--------1---------------------0---------1---------------0-------|
B|----1-----1-----------2-----2-------3-----3---------1-----1-----|
G|------2-----2-------2-----2-------2---2-----2-----0---0-----0---|
D|--3-----------3---2-----2-------0-------------0-----------------|
A|----------------0-------------------------------3-------------3-|
E|1---------------------------------------------------------------|
  1       2       3       4       1       2       3       4       
                    Shine forever true
  F               A               Bb                      
e|--------1-------------------------------------------------------|
B|----1-----1-------------2---------------3-------------3-------3-|
G|------2-----2-------2-----2---2-----3-----3---3-----3-------3---|
D|--3-----------3---2---2-----2-----3---3-----3-----3-------3-----|
A|----------------0---------------1---------------1-------1-------|
E|1---------------------------------------------------------------|
  1       2       3       4       1       2       3       4       

[Outro solo] All strummed

Dm     C      Bb       x4
A             Dm      C
F      A      Dm      C
F      A      Bb        



     
Suggest correction
Give kudos to tab author, rate the tab!
1 2 3 4 5
comments
print report bad tab
guest
You may want to rate the tab now too:
select rating
Wanna post a correction for this tab? Suggest correction