Oops, an error
Loading. Please wait.

Save Me Tab

version 1
version 1
16,552 views 6 this week
4 commentsread comments
1 2 3 4 5
accurate
x 7
add to favorites
launch autoscroll
font size
0
reset
how to read this tab
guitar tuner
Autoscroll
slow
fast
+/-
esc
set tempo
stop
Help us to improve Ultimate-Guitar.com Take our survey!
×
Contributor
Difficulty
Tuning
intermediate
D A D G B E
Hey everyone, another tab, this time on a song off Avenged Sevenfold's new record, 
This is merely the intro to a really great song.

I've divided it up into two guitar parts, which play simultaneously. Listen along, 
and it'll be easy.

UPDATED: Added intro through 1:39

Guitar 1:

e|---------------5-6~--5~-6p5p4--5~-------5-6~--5~--6h5--3~----------------|
B|-------------6------------------------5----------------------------------|
G|-----7~---/7-----------------------/6------------------------------------|
D|-------------------------------------------------------------------------|
A|-------------------------------------------------------------------------|
D|-------------------------------------------------------------------------|

Guitar 2:

e|-------------------------------------------------------------------------|
B|-------------------------------------------------------------------------|
G|-------------------------------------------------------------------------|
D|-------------------------------------------------------------------------|
A|-------------------------------------------------------------------------|
D|-------------------------------------------------------------------------|

Guitar 1:

e|------/3--5~-3~-2~----------2~-3~----------------------------------------|
B|-------------------5~-3~-5~-------3~-------------------------------------|
G|-------------------------------------------------------------------------|
D|-------------------------------------------------------------------------|
A|-------------------------------------------------------------------------|
D|-------------------------------------------------------------------------|

Guitar 2:

e|-------------------------------------------------------------------------|
B|------/5--7~-5~-3~-2~-0~-2~-3~-5~-0~-------------------------------------|
G|-------------------------------------------------------------------------|
D|-------------------------------------------------------------------------|
A|-------------------------------------------------------------------------|
D|-------------------------------------------------------------------------|

Guitar 1:

e|---/10~--10-10~--9--/12~--10~--/10--10-10~--9--/12~-10------7--9~--------|
B|--------------------------------------------------------10---------------|
G|-------------------------------------------------------------------------|
D|-------------------------------------------------------------------------|
A|-------------------------------------------------------------------------|
D|-------------------------------------------------------------------------|

Guitar 2:

e|-------------------------------------------------------------------------|
B|---/19~--19-19~--17-/20~--19~--/18~-18-18~--17--/20~-18\-13--15--17~-----|
G|-------------------------------------------------------------------------|
D|-------------------------------------------------------------------------|
A|-------------------------------------------------------------------------|
D|-------------------------------------------------------------------------|

Guitar 1:

e|---/17--17--16--16---------------------------------17~--19~--17~---------|
B|--------------------14h17p14~-------------13--/17------------------------|
G|-------------------------------------------------------------------------|
D|-------------------------------------------------------------------------|
A|-------------------------------------------------------------------------|
D|-------------------------------------------------------------------------|

Guitar 2:

e|-------------/17--17--16--16---------------------------------------------|
B|------------------------------14h17p14~---11---13--13---15---13~---------|
G|-------------------------------------------------------------------------|
D|-------------------------------------------------------------------------|
A|-------------------------------------------------------------------------|
D|-------------------------------------------------------------------------|

Rhythm (by itself for now):

e|-------------------------------------------------------------------------|
B|-------------------------------------------------------------------------|
G|-------------------------------------------------------------------------|
D|-x---xxxxx---xxxxx-----xxxxxxxxxxxx---xxxxx---xxxxx-----xxxxxxxxxxx------|
A|-x---xxxxx---xxxxx-----xxxxxxxxxxxx---xxxxx---xxxxx-----xxxxxxxxxxx------|
D|-x---xxxxx---xxxxx-----xxxxxxxxxxxx---xxxxx---xxxxx-----xxxxxxxxxxx------|

(0:53)

Guitar 1:

e|-------------------------------------------------------------------------|
B|-------------------------------------------------------------------------|
G|------------------------------0-3---------------------------------0-3----|
D|-7p0h7h8----5p0h5h7---3p0---2--------7p0h7h8----5p0h5h7---3p0---2--------|
A|--------------------------4-----------------------------------4----------|
D|-------------------------------------------------------------------------|

Rhythm:

e|-------------------------------------------------------------------------|
B|-------------------------------------------------------------------------|
G|-------------------------------------------------------------------------|
D|-x---xxxxx---xxxxx-----xxxxxxxxxxxx---xxxxx---xxxxx-----xxxxxxxxxxx------|
A|-x---xxxxx---xxxxx-----xxxxxxxxxxxx---xxxxx---xxxxx-----xxxxxxxxxxx------|
D|-x---xxxxx---xxxxx-----xxxxxxxxxxxx---xxxxx---xxxxx-----xxxxxxxxxxx------|

(1:00) (Rhythm does the same thing)

Guitar 1:

e|-------------------------------------------------------------------------|
B|-------------------------------------------------------------------------|
G|------------------------------0-3-------------------------------0-3-6-7-9|
D|-7p0h7h8~--5p0h5h7~--3p0---2--------7p0h7h8~--5p0h5h7~--3p0---2----------|
A|-------------------------4----------------------------------4------------|
D|-------------------------------------------------------------------------|

Guitar 2:

e|-------------------------------------------------------------------------|
B|-------------------------------------------------------------------------|
G|-10p0h10h12~-9p0h9h10~--------0-3--10p0h10h12~-9p0h9h10~--------0-3-6-7-9|
D|----------------------3p0---2----------------------------3p0---2---------|
A|--------------------------4----------------------------------4-----------|
D|-------------------------------------------------------------------------|

(1:08)

Guitar 1:

e|-------------------------------------------------------------------------|
B|-------------------------------------------------------------------------|
G|-----------7~---12-10-9~----6--------------------------------------------|
D|---------7----7-----------8---7-5~-----7-5-------------------------------|
A|-8~--5-8----------------------------5-------8~---------------------------|
D|-------------------------------------------------------------------------|

Guitar 2:

e|-------------------------------------------------------------------------|
B|-------------------------------------------------------------------------|
G|-------------------------------------------------------------------------|
D|-----------7~----8-7-6~-----6--------------------------------------------|
A|-5~----5-8----8-----------8---8-7~-----8-7-5~----------------------------|
D|-----7------------------------------7------------------------------------|

Guitar 1:

e|-------------------------------------------------------------------------|
B|----------------------------10-11-14-------------------------------------|
G|-------7~-----12p10p9-10-12----------------------------------------------|
D|-----7-----7-------------------------------------------------------------|
A|-5-8---------------------------------------------------------------------|
D|-------------------------------------------------------------------------|

Guitar 2:

e|-------------------------------------------------------------------------|
B|-------------------------------------------------------------------------|
G|------------------------6-7-9--------------------------------------------|
D|-------7~-----8p7p6-7-8--------------------------------------------------|
A|---5-8-----8-------------------------------------------------------------|
D|-5-----------------------------------------------------------------------|

Repeat the last four lines

Guitar 1 (intro solo):

e|-------------------------------------------------------5~---6p5----6/10-9|
B|-----------------------------------------------------6----6-----8~-------|
G|---7~---//Divebombs here-----7~-9~-10p9p7p6h7~-----7---------------------|
D|-------------------------------------------------7-----------------------|
A|-------------------------------------------------------------------------|
D|-------------------------------------------------------------------------|

e|----------------------17~-13~-15~-13~--12-13-15/18-17~-/21~-21b~---------|
B|-------------14h15h17----------------------------------------------------|
G|----12h14h15-------------------------------------------------------------|
D|-------------------------------------------------------------------------|
A|-------------------------------------------------------------------------|
D|-------------------------------------------------------------------------|


| /   slide up
| \   slide down
| h   hammer-on
| p   pull-off
| ~   vibrato
| +   harmonic
| x   Mute note
| b   Bend
| pb  Pre-bend
| br  Bend release
| pbr Pre-bend release
| brb Bend release bendbend
Suggest correction What's this?
You can suggest a correction to this tab. Community and Mods will review your correction and vote to approve or reject it.
comments
print report bad tab
4 comments total. Showing first comments. show 1 bad comment
+4 reply
Seth Shadows 6,719 wrote on August 8 2010, 06:10 pm

^shut up, it's an intro for a reason.

+1 reply
Joseph Merrick4 14 wrote on August 8 2010, 06:27 pm

Nice! Cant wait for the rest, my fav song on the album

I want to post or [tab]
guest
You may want to rate the tab now too:
select rating
Please do not post tabs as comments. Select "correction" instead!